Oops, an error
Loading. Please wait.

Cross Out The Eyes Tab

version 3
version 3

Whole song

Interactive

845 views 1 this week
no commentswrite comment
1 2 3 4 5
please rate
add to favorites
launch autoscroll
font size
0
reset
how to read this tab
guitar tuner
Autoscroll
slow
fast
+/-
esc
set tempo
stop
Help us to improve Ultimate-Guitar.com Take our survey!
×
Difficulty
Tuning
intermediate
D A D G B E
-------------------------------------------------------------------------------
                             Cross Out the Eyes - Thursday
-------------------------------------------------------------------------------
Tabbed by: rottenkidmikey
Tuning: Drop D

Drum intro :00-:04

Verse 1 x2 :05-:24
e|---------------------------------------------------------------------------|
B|---------------------------------------------------------------------------|
G|---10/9-10/9--10/10/9--10/9-10/9--10/10/9--10/9-10/9--10/10/9-12121212/9/10|
D|----x/x--x/x---x/-x/x---x/x--x/x---x/-x/x---x/x--x/x---x/-x/x--x-x-x-x/x/-x|
A|----8/7--8/7---8/-8/7---8/7--8/7---8/-8/7---8/7--8/7---8/-8/7-10101010/7/-8|
D|-00----0----00-------00----0----00-------00----0----00---------------------|
   **    *    **       **    *    **       **    *    **

Pre-Chorus :25-:36
e|-----------------------------------------------------------------|
B|-----------------------------------------------------------------|
G|--------33/5/7/3--------55/7/9/7--------55/7/9/7--------33/5/7/3-|
D|--------xx/x/x/x--------xx/x/x/x--------xx/x/x/x--------xx/x/x/x-|
A|-0-00-0/11/3/5/1-0-00-0/33/5/7/5-0-00-0/33/5/7/5-0-00-0/11/3/5/1-|
D|-0-00-0----------0-00-0----------0-00-0----------0-00-0----------|

Chorus x2 :37-:49
e|-----------------------------------------|
B|-----------------------------------------|
G|------3333------3333------33333/555/7777-|
D|------xxxx------xxxx------xxxxx/xxx/xxxx-|
A|-0000-1111-0000-1111-0000-11111/333/5555-|
D|-0000------0000------0000----------------|

Post-Chorus riff x4 :50-:58
e|-----15---------|
B|-17------15--17-|
G|---14--14--14---|
D|----------------|
A|----------------|
D|----------------|

Verse 2 :59-1:47
e|-----------------------------------------------------------------------|
B|-----------------------------------------------------------------------|
G|-10-----9-----10-----12----10----9----10----12----14-----15-----12-----|
D|--x-x16-x-x16--x-x16--x-x8--x-x4-x-x4--x-x8--x-x8--x-x16--x-x16--x-x16-|
A|--8-----7------8-----10-----8----7-----8----10----12-----13-----10-----|
D|-----------------------------------------------------------------------|

cont...
e|---------------------|
B|---------------------|
G|-1214-x45?-----12/14-|
D|--just-play-it--x/-x-|
A|-----a-lot-----10/12-|
D|---------------------|

Pre-Chorus 1:48-1:58

Chorus x4 1:59-2:23

Bridge 2:24-3:00                      x5
e|cho-|--------------------------------|
B|-rus|---5----5----5---6-5h6p5-5------|
G|end-|----5----5----5---------5-5-----|
D|note|-----0----0----0-----------x----|
A|-0~-|--0~---0~---0~---------------0~-|
D|-0~-|--------------------------------|

Chorus x4 3:01-3:26

Outro x4 3:27-3:50
e|-----------------------------|
B|-----------------------------|
G|---------5555/7777-3333/5555-|
D|-5-5-5-5-xxxx/xxxx-xxxx/xxxx-|
A|-5-5-5-5-3333/5555-1111/3333-|
D|-5-5-5-5---------------------|

End Note 3:51-4:00
e|----|
B|----|
G|----|
D|-0~-|
A|-0~-|
D|-0~-|

Screaming 'till the end 4:00-4:09

| /  slide up
| \  slide down
| h  hammer-on
| p  pull-off
| ~  let ring
| +  harmonic
| x  Mute note
===============================================================================
Suggest correction
Give kudos to tab author, rate the tab!
1 2 3 4 5
comments
print report bad tab
guest
You may want to rate the tab now too:
select rating
Wanna post a correction for this tab? Suggest correction