Oops, an error
Loading. Please wait.

Division St Acoustic Tab

462 views 6 this week
no commentswrite comment
1 2 3 4 5
please rate
add to favorites
launch autoscroll
font size
0
reset
how to read this tab
guitar tuner
Tab Pro tools
  • play this tab
  • loop segment
  • change instrument
  • show fretboard
  • metronome
Autoscroll
slow
fast
+/-
esc
set tempo
stop
Contributor
Difficulty
novice
                      Thursday - Division St. (acoustic)
This is my First tab 
I learn how to play this song by ear so Im not sure if this is right
Tuning: Dropped D
  
Guitar 1-Steve Pedulla

Guitar 2-Tom Keeley

Guitar 1 try to figure out the strumming pattern your self

|----------------------------------------------------------|
|----------------------------------------------------------|
|----------------------------------------------------------|
|--0--0-0-0-0-0--0--0-0-0-0-0--0--0-0-0-0-0-0000000000-----|x2
|--0--0-0-0-0-0--0--0-0-0-0-0--0--0-0-0-0-0-0000000000-----|
|--0--0-0-0-0-0—-0—-0-0-0-0-0--0—-0-0-0-0-0-0000000000-----|
Guitar 2 try to figure out the strumming pattern your self

|----------------------------------------------------------|
|----------------------------------------------------------|
|----------------------------------------------------------|
|--0--0-0-0-0-0--0--0-0-0-0-0--0--0-0-0-0-0-0000000000-----|
|--0--0-0-0-0-0--0--0-0-0-0-0--0--0-0-0-0-0-0000000000-----|
|--0--0-0-0-0-0—-0—-0-0-0-0-0--0—-0-0-0-0-0-0000000000-----|

Not sure if this part is right

|-------------------------------------------------------------------|
|-------------------------------------------------------------------|
|--11--11-11-11-11-11--11--11-11-11-11-11--15-15-15-15-15151515-----|
|--0---0--0--0--0--0---0---0--0--0--0--0---0--0--0--0--00000000-----|
|--13--13-13-13-13-13--13--13-13-13-13-13--17-17-17-17-17171717-----|
|--0---0--0--0--0--0---0---0--0--0--0--0---0--0--0—-0--00000000-----|

Guitar 1
|--------------------------------------------|
|--------------------------------------------|
|---7----5----3----5----2-----5----3----5----|
|---7----5----3----3----3-----3----3----3----|
|--------------------------------------------|
|--------------------------------------------|

Guitar 2 haven’t figure it out all I know it is fast strumming

Guitar 1
|----------------------------------------------------|
|--0--0--0--0--0--0--0--0--0--0--0--0--0--0--0--0----|
|-9--9--9--9--7--7--7--7--5--5--5--5--4--4--4--4-----|x2
|----------------------------------------------------|
|----------------------------------------------------|
|----------------------------------------------------|

Guitar 2 I haven’t figured it out

Guitars 1 and 2
|---------------------------------------|
|---------------------------------------|
|--------------------------------9--9^--|
|--8-8-8-8--0~--0---7-7-7-7--8----------| X 2
|--8-8-8-8--0~--0---7-7-7-7--8----------|
|--8-8-8-8--0~--0---7-7-7-7--8----------|

|--------------------------------------------------------|
|--------------------------------------------------------|
|--------------------------------------------------------|
|---8-8---0-8-0-8-0--7-7-7-7---8-8---0-8-0-8-0--7-7-7-7--|x2
|---8-8---0-8-0-8-0--7-7-7-7---8-8---0-8-0-8-0--7-7-7-7--|
|---8-8---0-8-0-8-0--7-7-7-7---8-8---0-8-0-8-0--7-7-7-7--|
        
Guitar 1
|--------------------------------------------|
|--------------------------------------------|
|---7----5----3----5----2-----5----3----5----|
|---7----5----3----3----3-----3----3----3----|
|--------------------------------------------|
|--------------------------------------------|
Guitar 2 haven’t figure it out all I know it is fast strumming

Guitar 1 and 2 play this really fast
|-----------------------------------------------------------------------|
|-----------------------------------------------------------------------|
|-7-7-7-7-7-7--9-9-9-9-9-9--12-12-12-12-12-12-12--10-10-10-10-10-10-10--|
|-0-0-0-0-0-0--0-0-0-0-0-0---0--0--0--0--0--0--0---0--0--0--0--0--0--0--|x4
|-5-5-5-5-5-5--7-7-7-7-7-7--10-10-10-10-10-10-10---8--8--8--8--8--8--8--|
|-0-0-0-0-0-0--0-0-0-0-0-0---0--0--0--0--0--0--0---0--0--0--0--0--0--0--|

Guitar 1
|----------------------------------------------------|
|--0--0--0--0--0--0--0--0--0--0--0--0--0--0--0--0----|
|-9--9--9--9--7--7--7--7--5--5--5--5--4--4--4--4-----|x2
|----------------------------------------------------|
|----------------------------------------------------|
|----------------------------------------------------|
Guitar 2 I haven’t figured it out

Guitar 1 and 2
|-------------------------------------------------------|
|-------------------------------------------------------|
|-------------------------------------------------------|
|--8-8---0-8-0-8-0--7-7-7-7---8-8---0-8-0-8-0--7-7-7-7--|
|--8-8---0-8-0-8-0--7-7-7-7---8-8---0-8-0-8-0--7-7-7-7--|
|--8-8---0-8-0-8-0--7-7-7-7---8-8---0-8-0-8-0--7-7-7-7--|

Guitar 1 and 2
|----------------------------------------------------------|
|----------------------------------------------------------|
|----------------------------------------------------------|
|--8-8---0-8-0-8-0--8/101010----8-8---0-8-0-8-0--8/101010--|x2
|--8-8---0-8-0-8-0--8/101010----8-8---0-8-0-8-0--8/101010--|
|--8-8---0-8-0-8-0--8/101010----8-8---0-8-0-8-0--8/101010--|

Guitar 1 and 2
|-----------|
|-----------|
|-----------|
|--8-8------|
|--8-8------|
|--8-8------|

|---------------------------------------------|
|---------------------------------------------|
|---------------------------------------------|
|----------------------------0-0-0-0-0-10-10--| X 4
|----------------------------0-0-0-0-0--8--8--|
|----------------------------0-0-0-0-0--8--8--|
       
I haven’t figure out the breakdown part

Guitar 1 and 2
Hit each chord after Geoff says “between the footsteps”
|-----------------------|
|-----------------------|
|-----------------------|
|---0~~~0~~~~-----------|
|---0~~~0~~~0~~~--------|
|---0~~~0~~~0~~~0~~~----|

Guitar 1
|--------------------------------0----0---0-----0----|
|-----------------------------13---12---20---19------|
|---------------------------0-----0----0----0--------|
|----------------------------------------------------|
|----------------------------------------------------|
|----------------------------------------------------|
Guitar 2 I think this is right
|------------------------------------------------------------------|
|--6---6---6---5---5---5---8---8---8---6---6---6-------------------|
|----7---7-------7---7-------7---7-------7---7---------------------|
|------------------------------------------------------------------|
|------------------------------------------------------------------|
|------------------------------------------------------------------|

Guitar 1 try to figure out the strumming pattern your self
|----------------------------------------------------------|
|----------------------------------------------------------|
|----------------------------------------------------------|
|--0--0-0-0-0-0--0--0-0-0-0-0--0--0-0-0-0-0-0000000000-----|x2
|--0--0-0-0-0-0--0--0-0-0-0-0--0--0-0-0-0-0-0000000000-----|
|--0--0-0-0-0-0—-0—-0-0-0-0-0--0—-0-0-0-0-0-0000000000-----|
Guitar 2 try to figure out the strumming pattern your self
|----------------------------------------------------------|
|----------------------------------------------------------|
|----------------------------------------------------------|
|--0--0-0-0-0-0--0--0-0-0-0-0--0--0-0-0-0-0-0000000000-----|
|--0--0-0-0-0-0--0--0-0-0-0-0--0--0-0-0-0-0-0000000000-----|
|--0--0-0-0-0-0—-0—-0-0-0-0-0--0—-0-0-0-0-0-0000000000-----|
Not sure if this part is right 
|-------------------------------------------------------------------|
|-------------------------------------------------------------------|
|--11--11-11-11-11-11--11--11-11-11-11-11--15-15-15-15-15151515-----|
|--0---0--0--0--0--0---0---0--0--0--0--0---0--0--0--0--00000000-----|
|--13--13-13-13-13-13--13--13-13-13-13-13--17-17-17-17-17171717-----|
|--0---0--0--0--0--0---0---0--0--0--0--0---0--0--0—-0--00000000-----|


Guitar 1
|----------------------------------------------------|
|--0--0--0--0--0--0--0--0--0--0--0--0--0--0--0--0----|
|-9--9--9--9--7--7--7--7--5--5--5--5--4--4--4--4-----|x2
|----------------------------------------------------|
|----------------------------------------------------|
|----------------------------------------------------|
Guitar 2 I haven’t figured it out

Guitar 1 and 2 play this really fast
|-----------------------------------------------------------------------|
|-----------------------------------------------------------------------|
|-7-7-7-7-7-7--9-9-9-9-9-9--12-12-12-12-12-12-12--10-10-10-10-10-10-10--|
|-0-0-0-0-0-0--0-0-0-0-0-0---0--0--0--0--0--0--0---0--0--0--0--0--0--0--|x2
|-5-5-5-5-5-5--7-7-7-7-7-7--10-10-10-10-10-10-10---8--8--8--8--8--8--8--|
|-0-0-0-0-0-0--0-0-0-0-0-0---0--0--0--0--0--0--0---0--0--0--0--0--0--0--|


End with
|-----------------|
|-----------------|
|-----------------|
|--0~~~~~~~~~-----|
|--0~~~~~~~~~-----|
|--0~~~~~~~~~-----|

comments
We did not receive enough feedback on this tab! Please rate:
print report bad tab
1 2 3 4 5
I want to post or [tab]
guest
You may want to rate the tab now too:
select rating
Please do not post tabs as comments. Select "correction" instead!