Oops, an error
Loading. Please wait.

Division St Tab

version 1
version 1

Whole song

Interactive

1,405 views 1 this week
no commentswrite comment
1 2 3 4 5
please rate
add to favorites
launch autoscroll
font size
0
reset
how to read this tab
guitar tuner
Autoscroll
slow
fast
+/-
esc
set tempo
stop
Help us to improve Ultimate-Guitar.com Take our survey!
×
Contributor
stellar_legs 4,744
-----------------------------------------------------------------------------
                        THURSDAY - DIVISION St.
-----------------------------------------------------------------------------

tabbed by: stellar_legs
e-mail: uncle_stellar@hotmail.com

tuning: Dropped D

Intro (Guitar 1 plays with bass)
A-----------------------------------------------|
B-----------------------------------------------|
G-----------------------------------------------|
D-----------------------------------------------|
A-----------------------------------------------|
E--0-0-0-0---0-0-0---0-0-0-0--0-0-0---0-0-0-0---|

Intro (guitar 2)Clean. let each chord ring...
e--------------------------------------|
B--------------------------------------|
G---7----5----3----5----2-----5----3---|
D---7----5----3----3----3-----3----3---|
A--------------------------------------|
E--------------------------------------|

Guitar 1 (distortion)
e--------------------------------------------------------------------------|
B--------------------------------------------------------------------------|
G--7h9-7--7h9-7--7-7---5h7-5--5h7-7--5-5---3h5-3--3h5-3--3-3--2h3--2h3--2h3|
D--------------------------------------------------------------------------|
A--------------------------------------------------------------------------|
E--------------------------------------------------------------------------|

Guitar 2 (just mess around with this note)
e-------------------------|
B--10^---10^---10^---10^--|
G-------------------------|
D-------------------------|
A-------------------------|
E-------------------------|

Guitars 1 and 2 (distortion)
e---------------------------------------|
B---------------------------------------|
G--------------------------------9--9^--|
D--8-8-8-8--0~--0---7-7-7-7--8----------|  X 2
A--8-8-8-8--0~--0---7-7-7-7--8----------|
E--8-8-8-8--0~--0---7-7-7-7--8----------|

e--------------------------------------------------------|
B--------------------------------------------------------|
G--------------------------------------------------------|
D---8-8---0-8-0-8-0--7-7-7-7---8-8---0-8-0-8-0--7-7-7-7--|
A---8-8---0-8-0-8-0--7-7-7-7---8-8---0-8-0-8-0--7-7-7-7--|
E---8-8---0-8-0-8-0--7-7-7-7---8-8---0-8-0-8-0--7-7-7-7--|
          "This is serious..."

Repeat the intro part, then do this.....

Guitar 1 (distortion)
e-----------------------------------------------------------------------|
B-----------------------------------------------------------------------|
G-7-7-7-7-7-7--9-9-9-9-9-9--12-12-12-12-12-12-12--10-10-10-10-10-10-10--|
D-0-0-0-0-0-0--0-0-0-0-0-0---0--0--0--0--0--0--0---0--0--0--0--0--0--0--|
A-5-5-5-5-5-5--7-7-7-7-7-7--10-10-10-10-10-10-10---8--8--8--8--8--8--8--|
e-0-0-0-0-0-0--0-0-0-0-0-0---0--0--0--0--0--0--0---0--0--0--0--0--0--0--|

Guitar 2
e------------------------------------------|
B------------------------------------------|
G------------------------------------------|
D--0--0-0-0---2--2-2-2---7--7-7-7---5-5-5--|
A--0--0-0-0---2--2-2-2---5--5-5-5---3-3-3--|
E--0--0-0-0---2--2-2-2---5--5-5-5---3-3-3--|

Repeat everything from the intro again, than this.

Guitar 1 and 2
e-------------------------------------------------------|
B-------------------------------------------------------|
G-------------------------------------------------------|
D--8-8---0-8-0-8-0--7-7-7-7---8-8---0-8-0-8-0--7-7-7-7--|
A--8-8---0-8-0-8-0--7-7-7-7---8-8---0-8-0-8-0--7-7-7-7--|
E--8-8---0-8-0-8-0--7-7-7-7---8-8---0-8-0-8-0--7-7-7-7--|

Guitar 1 (Guitar 2 continues above)
e--------------------------------------------------------------------|
B--------------------------------------------------------------------|
G-10-10-10-10-10---12-12-12-12-12---14-14-14-14-14---17-17-17-17-17--|
D--x--x--x--x--x----x--x--x--x--x----x--x--x--x--x----x--x--x--x--x--|
A--8--8--8--8--8---10-10-10-10-10---12-12-12-12-12---15-15-15-15-15--|
E--------------------------------------------------------------------|


Guitar 1 and 2
e-----------------------------------------------------------|
B-----------------------------------------------------------|
G-----------------------------------------------------------|
D--8-8-------------------------------------0-0-0-0-0-10-10--| X 4
A--8-8-------------------------------------0-0-0-0-0--8--8--|
E--8-8-------------------------------------0-0-0-0-0--8--8--|
       "I drew an X on your city's name."

Guitar 1 (these 2 parts play in unison)
e---------------------------------------------------------------|
B---------------------------8-----------------------------------|
G------------------------------9--9h10-9------------------------|
D-----------------------------------------10--------------------|
A---------------------------------------------------------------|
E-0-0-0-0-0

Guitar 2
e---------------------------------------------------------------|
B---------------------------------------------------------------|
G---------------------------------------------------------------|
D-------------8-----7~-----------------------------7^8-7--------|
A--0-0-0-0-0--8--8----------------------------------------8--5~-|
E--0-0-0-0-0--8-------------------------------------------------|

Guitar 1
e---8--8-8-----------------------------------------|
B-----------10~--8---------------------------------|
G-------------------9-9h10-9-----------------------|
D-----------------------------10-----7^8-8------0--|
A-------------------------------------------8---0--|
E-----------------------------------------------0--|

Guitar 2
e---------------------------------------------------|
B---------------------------------------------------|
G---------------------------------------------------|
D----------------10---7--7^8-7-------------------0--|
A-------------------------------8----5^6-5-------0--|
E--------------------------------------------8---0--|


Guitar 1 (clean)
e------------------------------------------------------------------|
B--6---6---6---5---5---5---8---8---8---6---6---6---11----11----11--|
G----7---7-------7---7-------7---7-------7---7--------10----10-----|
D------------------------------------------------------------------|
A------------------------------------------------------------------|
E------------------------------------------------------------------|

Guitar 2 (faintly plays this note)
e---------|
B---------|
G---------|
D---------|
A---8~~~--|
E---------|

Guitar 1 (continuing above)
e--------------------------------------------------|
B--10----10----10---8----8----8---10----10----10---|
G-----10----10--------10---10--------10----10------|
D--------------------------------------------------| X 4 (?)
A--------------------------------------------------|
e--------------------------------------------------|

Guitar 2 (weird dist.)
e----------------------------------|
B----------------------------------|
G---15----15--14----14---15----15--|
D---13----13--12----12---13----13--|
A---13----13--12----12---13----13--|
E----------------------------------|

Guitar 1 (cool lick)
e--13-----12----------------------------------------|
B-----10-----10---13/15--11/13---10h11--8h10p8------|
G-----------------------------------------------10--|
D---------------------------------------------------|
A---------------------------------------------------|
E---------------------------------------------------|

The rest is self-explanatory.

Fin./
Suggest correction new What's this?
You can suggest a correction to this tab. Community and Mods will review your correction and vote to approve or reject it.
comments
We did not receive enough feedback on this tab! Please rate:
print report bad tab
1 2 3 4 5
guest
You may want to rate the tab now too:
select rating
Please do not post tabs as comments. Select "correction" instead!