Oops, an error
Loading. Please wait.

For The Workforce Drowning Tab

version 2
version 2

Whole song

Interactive

610 views 1 this week
1 commentread comment
1 2 3 4 5
please rate
add to favorites
launch autoscroll
font size
0
reset
how to read this tab
guitar tuner
Autoscroll
slow
fast
+/-
esc
set tempo
stop
Help us to improve Ultimate-Guitar.com Take our survey!
×
Author
Difficulty
Tuning
intermediate
D A D G B E
For the Workforce, Drowning - by - Thursday
Album:war all the time
Tuning: Dadgbe
-this is just one guitar part but the actual correct tab for the song...
 it is the way i play it

Intro

e------------------8-5-6-------------------8-5-6---------|
b-6666-6-6-6--6666-6-6-6--6666-6-6-6--6666-6-6-6--6~~~---|
g-7777-7-7-7--7777-7-7-7--7777-7-7-7--7777-7-7-7--7~~~---|
d-0000-0-0-0--0000-0-0-0--0000-0-0-0--0000-0-0-0--0~~~---|
a-0000-0-0-0--0000-0-0-0--0000-0-0-0--0000-0-0-0--0~~~---|
D-0000-0-0-0--0000-0-0-0--0000-0-0-0--0000-0-0-0--0~~~---|

Transition into verse "falling from the top floor"

e----8-0---6-0---5-0---6---|
b--------------------------|
g--7-----7-----7-----7-----|
d--------------------------|
a--------------------------|
D--------------------------|

Verses "Your Lungs fill like parachutes" (tremelo picking)

e--5////////-6////////-5/////-6/////-----------55555555555---|
b--6////////-6////////-6/////-6/////--6~~~-----55555555555---|
g--7////////-7////////-7/////-7/////--7~~~-----77777777777---|
d-------------------------------------0~~~-------------------|
a-------------------------------------0~~~-------------------|
D-------------------------------------0~~~-------------------|

"Dressed for the funeral in black and white, these ties strange our necks"

e--5////////-6////////-5/////-6/////-------------8-0---6-0---5-0--6--|
b--6////////-6////////-6/////-6/////--6~~~---------------------------|
g--7////////-7////////-7/////-7/////--7~~~-----7-----7-----7----7----|
d-------------------------------------0~~~---------------------------|
a-------------------------------------0~~~---------------------------|
D-------------------------------------0~~~---------------------------|

Alternate between last 2 riffs for verses(play each riff total of 2 times)

Chorus "Please take these hands"

e----------------------------------------------------|
b-6666-6-6-6-6666-6-6-6------------------------------|
g-7777-7-7-7-7777-7-7-7--10-9--10-9--10-9---15--14---|
d-0000-0-0-0-0000-0-0-0--10-10-10-10-10-10--x---x----|
a-0000-0-0-0-0000-0-0-0--8--8--8--8--8--8---13--12---|
D-0000-0-0-0-0000-0-0-0--8--8--8--8--8--8------------|

e----------------------------------------------------|
b-6666-6-6-6-6666-6-6-6------------------------------|
g-7777-7-7-7-7777-7-7-7--10-9--10-9--10-9---12~------|
d-0000-0-0-0-0000-0-0-0--10-10-10-10-10-10--x--------|
a-0000-0-0-0-0000-0-0-0--8--8--8--8--8--8---10~------|
D-0000-0-0-0-0000-0-0-0--8--8--8--8--8--8------------|

Verse 2 "9 to 5! 9 to 5!..."

e---------------12-10--------------5------------5-------------|
b--------10-----------10---(x2)------6-5-5-6-5----6-5-5-6-5---|
g-----10----10------------------------------------------------|
d--12---------------------------------------------------------|
a-------------------------------------------------------------|
D-------------------------------------------------------------|

"its just in your morning commute"

e---------------12-10-----------------------------------------|
b--------10-----------10---(x2)--10bubd--13bubd--17bubd--13---|
g-----10----10------------------------------------------------|
d--12---------------------------------------------------------|
a-------------------------------------------------------------|
D-------------------------------------------------------------|

Alternate those riffs in verses

Next part (prechorus type thing) "is it always just ahead of the curve"

Tremelo picking

e-----------------------------------------------------------------|
b--10////-11////-10////-11////--15////////-17////////-------------|
g--12////-12////-12////-12////--17////////-19////////--15-17-19---|
d------------------------------------------------------x--x--x----|
a------------------------------------------------------13-15-17---|
D-----------------------------------------------------------------|

Play chorus again

Transition into Bridge "just keep making copies"

e----------------------------------------------|
b-6-6-6-6-6-6-6-6-6-6--6-6-6-6-6-6-6-6-6~~~----|
g-7-7-7-7-7-7-7-7-7-7--7-7-7-7-7-7-7-7-7~~~----|
d----------------------0-0-0-0-0-0-0-0-0~~~----|
a----------------------0-0-0-0-0-0-0-0-0~~~----|
D----------------------0-0-0-0-0-0-0-0-0~~~----|

Bridge "it never ends.." (this riff slowly fades in)

e-10-13-10-10-10-10-10--10-10-10--10-10-10-10---|
b-10-10-10-11-10-13-10--13-11-10--10-11-10-10---|
g-10-10-10-10-10-10-10--10-10-10--10-10-12-10---|
a-----------------------------------------------|
d-----------------------------------------------|
D-----------------------------------------------|

e-10-12-10-10-10-10-10--10-10-10--10-10-10-10---|
b-10-10-10-11-10-13-10--13-11-10--10-11-10-10---|
g-10-10-10-10-10-10-10--10-10-10--10-10-12-10---|
a-----------------------------------------------|
d-----------------------------------------------|
D-----------------------------------------------|

keep alternating between these 2 riffs until next part

"last night my teeth fell out"

e-------------------------------------|
b-------------------------------------|
g-222----999----10-10-10---12-12-12---|
d-000----777----8--8--8----10-10-10---|
a-000----777----8--8--8----10-10-10---|
D-000----777----8--8--8----10-10-10---|

INterlude "Save our ship...."

e-------------------------------------------|
b-------------------------------------------|
g-----------------------12-12-12-12-12-12---|  (x2)
d-8888----7777----0~~~--10-10-10-10-10-10---|
a-8888----7777----0~~~--10-10-10-10-10-10---|
D-8888----7777----0~~~--10-10-10-10-10-10---|

Interlude continued

e-----------------------------------------------|
b-----------------------------------------------|
g-12-14-12-14-12-14--12--10/9/10/9/10/9/10/9----|
d-x--x--x--x--x--x---x---x--x-x--x--x-x--x-x----|
a-10-12-10-12-10-12--10--8--8-8--8--8-8--8-8----|
D-----------------------------------------------|

e---------------------------------------------------|
b---------------------------------------------------|
g-12-14-12-14-12-14--15--12--10/9/10/9/10/9/10/9----|
d-x--x--x--x--x--x---x---x---x--x-x--x--x-x--x-x----|
a-10-12-10-12-10-12--13--10--8--8-8--8--8-8--8-8----|
D---------------------------------------------------|

Then

e------------------------------------------|
b------------------------------------------|
g------------------------------------------|
d-888888-777777-000000-10-10-10-10-10-10---|
a-888888-777777-000000-10-10-10-10-10-10---|
D-888888-777777-000000-10-10-10-10-10-10---|

Outro


e------------------8-5-6-------------------8-5-6---------|
b-6666-6-6-6--6666-6-6-6--6666-6-6-6--6666-6-6-6--6------|
g-7777-7-7-7--7777-7-7-7--7777-7-7-7--7777-7-7-7--7------|
d-0000-0-0-0--0000-0-0-0--0000-0-0-0--0000-0-0-0--0------|
a-0000-0-0-0--0000-0-0-0--0000-0-0-0--0000-0-0-0--0------|
D-0000-0-0-0--0000-0-0-0--0000-0-0-0--0000-0-0-0--0------|

ENDing

e--5////-6////-------------|
b--6////-6////-----3-3-3---|
g--7////-7////-----2-2-2---|
d------------------0-0-0---|
a------------------0-0-0---|
D------------------0-0-0---|

Thats it enjoy.
Suggest correction
Give kudos to tab author, rate the tab!
1 2 3 4 5
comments
print report bad tab
1 comment total.
0 reply
Will-Low 206 wrote on November 29 2007, 01:22 am

wow. sophisticated. I couldn't hear most of it because of all layers but there are a couple parts im not sure of. oh
well it sounds cool. thx and pretty nice tab

guest
You may want to rate the tab now too:
select rating
Please do not post tabs as comments. Select "correction" instead!