Oops, an error
Loading. Please wait.

Friends In The Armed Forces Tab

version 1
version 1

Whole song

Interactive

1,376 views 1 this week
1 commentread comment
1 2 3 4 5
please rate
add to favorites
launch autoscroll
font size
0
reset
how to read this tab
guitar tuner
Autoscroll
slow
fast
+/-
esc
set tempo
stop
Help us to improve Ultimate-Guitar.com Take our survey!
×
Author
----------------------------------------------------------------
            Friends In The Armed Forces - Thursday
----------------------------------------------------------------
Tabbed by: Kristyn Lee
Email: spot_the_village_loony_836@hotmail.com

Tuning: Drop D

Intro
e|---------------------------|
B|---------------------------|
G|--111111------111111-------|x2
D|--9-9-9--0~---9-9-9--0~----|
A|--9-9-9--0~---9-9-9--0~----|
E|--9-9-9--0~---9-9-9--0~----|

e|---------------------------------------------------|
B|---------------------------------------------------|
G|---------------------------------------------------|x4
D|--44444444-77777777-99999999-000-99\7--------------|
A|--44444444-77777777-99999999-000-99\7--------------|
E|--44444444-77777777-99999999-000-99\7--------------|

verse
e|-----------------------------|
B|-----------------------------|
G|-----------------------------|x2
D|-----------------------------|
A|---444p0-444p0-444p0-444p0---|
E|---444p0-444p0-444p0-444p0---|

e|-----------------------|
B|-----------------------|
G|-----------------------|x2
D|---44444444--77777-----|
A|---22222222--55555-----|
E|-----------------------|

e|-----------------------------|
B|-----------------------------|
G|-----------------------------|x2
D|-----------------------------|
A|---444p0-444p0-444p0-444p0---|
E|---444p0-444p0-444p0-444p0---|

pre-chorus
e|------------------------------------|
B|------------------------------------|
G|------------------------------------|
D|---44444444-77777-44444444--22222---|
A|---22222222-55555-22222222--22222---|
E|----------------------------22222---|

Chorus
e|---------------------------------------------------|
B|---------------------------------------------------|
G|---------------------------------------------------|x4
D|--44444444-77777777-99999999-000-99\7--------------|
A|--44444444-77777777-99999999-000-99\7--------------|
E|--44444444-77777777-99999999-000-99\7--------------|

Repeart verse, listen for the order

bridge
e|---------------------------------------------------|
B|--77777777--55555555--33333333--55555555-----------|
G|--66666666--44444444--22222222--44444444-----------|x4
D|---------------------------------------------------|
A|---------------------------------------------------|
E|---------------------------------------------------|

e|-------------5-------------------------------------|
B|------7-------------7--------9---------------------|
G|--4-7----4-7----4-7----4--7------------------------|x2
D|---------------------------------------------------|
A|---------------------------------------------------|
E|---------------------------------------------------|

Repeat chorus

e|---------------------------|
B|---------------------------|
G|--111111------111111-------|x2
D|--9-9-9--0~---9-9-9--0~----|
A|--9-9-9--0~---9-9-9--0~----|
E|--9-9-9--0~---9-9-9--0~----|


repeat chorus


| /  slide up
| \  slide down
| h  hammer-on
| p  pull-off
| ~  vibrato
| +  harmonic
| x  Mute note
====================================================================
Suggest correction
Give kudos to tab author, rate the tab!
1 2 3 4 5
comments
print report bad tab
1 comment total.
0 reply
SoCal Surfer 10 wrote on November 19 2009, 11:47 pm

great tab it sounds spot on to the song

guest
You may want to rate the tab now too:
select rating
Wanna post a correction for this tab? Suggest correction