Oops, an error
Loading. Please wait.

How Long Is The Night Tab

version 1
version 1

Whole song

Interactive

1,351 views 1 this week
2 commentsread comments
1 2 3 4 5
please rate
add to favorites
launch autoscroll
font size
0
reset
how to read this tab
guitar tuner
Autoscroll
slow
fast
+/-
esc
set tempo
stop
Help us to improve Ultimate-Guitar.com Take our survey!
×
Author
Song: How Long Is The Night?
Band: Thursday
tabber: stellar_legs

Tuning: Dropped D

I don't have a guitar in front of me, so this might not be right on cue. But it's the 
(and only) tab your going to find.


Intro Pt. 1 (distortion)

Guitar 1
e--------------------------------------------------------------------|
B--------------------------------------------------------------------|
G---9-9-9-9-9-9-9-9--7-7-7-7-7-7-7-7---2-2-2-2-2-2-2-----------------|
D---7-7-7-7-7-7-7-7--5-5-5-5-5-5-5-5---0-0-0-0-0-0-0--2-2-2-2-2-2-2--|
A---7-7-7-7-7-7-7-7--5-5-5-5-5-5-5-5---0-0-0-0-0-0-0--2-2-2-2-2-2-2--|
D---7-7-7-7-7-7-7-7--5-5-5-5-5-5-5-5---0-0-0-0-0-0-0--2-2-2-2-2-2-2--|

Guitar 2
e--------------------------------------------------------------------|
B--------------------------------------------------------------------|
G---------------------------/12-12-12/10--9-9-9-9---4---4-4/5--7~----|
D---------------------------/-x--x--x/-x--x-x-x-x---x---x-x/x--x~----|
A---------------------------/10-10-10/-8--7-7-7-7---2---2-2/3--5~----|
D--------------------------------------------------------------------|
 "If we run far away........"

Intro Pt. 2

Guitar 1
e---------------------------------------------------|
B---------------------------------------------------|
G---------------------------------------------------|
D--0-0-0-0-0-0-0---3-3-3-3-3-3-3---2-2-2-2-2-2-2----|
A--0-0-0-0-0-0-0---3-3-3-3-3-3-3---2-2-2-2-2-2-2----|
D--0-0-0-0-0-0-0---3-3-3-3-3-3-3---2-2-2-2-2-2-2----|

Guitar 2
e---------------------------------------------------|
B---------------------------------------------------|
G----------------12-12-12-12-12---11--11-11/12/14~--|
D-----------------x--x--x--x--x----x---x--x/-x/-x~--|
A----------------10-10-10-10-10----9---9--9/10/12~--|
D---------------------------------------------------|

Repeat Intro Pt. 1

e--------------------|
B--------------------|
G--------------------|
D--2--2--2--2--2--2--|
A--2--2--2--2--2--2--|
D--2--2--2--2--2--2--|
  p.m.  p.m.  p.m.
"How long is the night!?"

Intro Pt. 3

Guitar 1 (Let each chord ring)
e-----------------------------------------------------------------------------|
B-----------------------------------------------------------------------------|
G-----------------------------------------------------------------------------|
D--0-0-0-0---0-0-0-0-------5-5-5-5---5-5-5-5---0-0-0-0---0-0-0-0---5-5-5-5----|
A--0-0-0-0---0-0-0-0-------3-3-3-3---3-3-3-3---0-0-0-0---0-0-0-0---3-3-3-3----|
D--0-0-0-0---0-0-0-0-------3-3-3-3---3-3-3-3---0-0-0-0---0-0-0-0---3-3-3-3----|

Guitar 2
e--------------------------------------------------------------|
B-----------------------------------6----------------6---------|
G---------5~---------5~---------------5----------------5-------|
D---------3~---------3~-----------------3~---------------3~----|
A----------------------------3------------------3--------------|
D--------------------------3---3--------------3---3------------|

Guitar 1 continues riffs

Guitar 2 (fast strumming
e----------------------------------------|
B----------------------------------------|
G--999999999--77777777--444444444444444--|
D--xxxxxxxxx--xxxxxxxx--xxxxxxxxxxxxxxx--|
A--777777777--55555555--222222222222222--|
D--000000000--00000000--000000000000000--|

Guitar 1 plays this fill over riffs above:
e---------------------------------------------------|
B---------------------------------------------------|
G---9h10--9h10--9h10--9h10--9h10--9h10--9h10--9h10--|
D---------------------------------------------------|
A---------------------------------------------------|
D---------------------------------------------------|

Repeat Intro 3 once more

Guitar 1 (Clean) Stop/start rythm
e-----------------------------------------------------|
B-----------------------------------------------------|
G--5x-5x-5x-5x-5x-5x-5x-5x---4x-4x-4x-4x-4x-4x-4x-4x--|
D--7x-7x-7x-7x-7x-7x-7x-7x---5x-5x-5x-5x-5x-5x-5x-5x--|
A-----------------------------------------------------|
D-----------------------------------------------------|
 Pretty much repeated over and over

Guitar 2 (clean, let each note ring)
e--5------------------5---------|
B--------5~-----------------5~--|
G-----5------------------5------|
D-------------------------------|
A-------------------------------|
D-------------------------------|
Played over Guitar 1's part

Repeat until both guitars do this: (strummed a bit faster)
e--12-12-12-12-12-12-12-12-12--10-10-10-10/15-15-15-15-15-15--14-14-14-14-14-|
B--10-10-10-10-10-10-10-10-10---8--8--8--8/13-13-13-13-13-13--12-12-12-12-12-|
G----------------------------------------------------------------------------|
D----------------------------------------------------------------------------|
A----------------------------------------------------------------------------|
D----------------------------------------------------------------------------|

Guitar 1 (distortion)
e-------------------------------------------|
B-------------------------------------------|
G----------------5-5-5---------5-5-5--------|
D----------------7-7-7---------7-7-7--------|
A---------0-0-0---------0-0-0---------0-0x--|
D---12/---0-0-0---------0-0-0---------0-0x--|
           p.m.          p.m.         p.m/

Guitar 1 plays open palm mutes in between this riff:

Guitar 2
e------15--------------15--------------------------15------------15--------|
B----------12h13-----------12h13-------------------------------------------|
G--14--------------14--------------------14h17-14------14h17-14------------|
D--------------------------------------------------------------------------|
A---------------------------------0-0---------------------------------0-0--|
D---------------------------------0-0---------------------------------0-0--|
                                  p.m.                                p.m.
                                guitar 1                            guitar 1


Repeat all 3 intros again

Clean breakdown

Guitar 1
e--------------------------------------------------------------------------|
B--------------------------------------------------------------------------|
G---------9-------------9------------------9-------------------9-----------|
D------------7~------------7~--9h10-10/12----10~---9h10-10/12-----10-9~----|
A---8--8----------8--8-----------------------------------------------------|
D--------------------------------------------------------------------------|
There's another part to this but I don't remember. It's just a bunch of clean notes. Go for it.

Outro (both guitars)
e--8-8-8-8-8-8-8-8-8-8-8-8-8---12-12-12-12-12-12-12-12-12-12-12--|
B----------------------------------------------------------------|
G----------------------------------------------------------------|
D----------------------------------------------------------------|
A----------------------------------------------------------------|
D----------------------------------------------------------------|

e--5-5-5-5-5-5-5-5-5-5-5-5---7-7-7-7-7-7-7-7-7-7-7---|
B----------------------------------------------------|
G----------------------------------------------------|
D----------------------------------------------------|
A----------------------------------------------------|
D----------------------------------------------------|

This isn't my best tab, but it's enough to help you figure it out yourself.

Fin.
Suggest correction
What's this?
You can suggest a correction to this tab. Community and Mods will review your correction and vote to approve or reject it.
comments
We did not receive enough feedback on this tab! Please rate:
print report bad tab
1 2 3 4 5
2 comments total.
0 reply
Adam*The Chaos* 99 wrote on June 23 2006, 05:01 am

Pretty good dude I live this song as well as this tab thanks ^_^

0 reply
Covin 639 wrote on January 3 2007, 01:42 am

Missing some of the little flavors, but it gets the gist across; thanks for tabbing it!!

guest
You may want to rate the tab now too:
select rating
Please do not post tabs as comments. Select "correction" instead!