Oops, an error
Loading. Please wait.

I Am The Killer Bass Tab

version 1
version 1

Whole song

Interactive

329 views 9 this week
1 commentread comment
1 2 3 4 5
2 more votes to show rating
add to favorites
launch autoscroll
font size
0
reset
guitar tuner
Autoscroll
slow
fast
+/-
esc
set tempo
stop
Help us to improve Ultimate-Guitar.com Take our survey!
×
   riff one                                            3x
G||--------------------------|---------------------------||
D||*-------------------------|--------------------------*||
A||*-------------------------|--------------------------*||
D||---0--x-x-x-x-0------0----|--0h-3--3--3--3h-5--5--5---||

4th time play this                                                     
--------------------------|--------------------------|
--------------------------|--------------------------|
--------------------------|--------------------------|
---0--x-x-x-x-0------0----|--0--2----2----2--3----3--|




  verse one                                                       
||-------------------------|----------------------------|--------------------------|
||-------------------------|----------------------------|--------------------------|
||-------------------------|----------------------------|--------------------------|
||--0--0--0--12-12-12-0----|--0--14--12------0--10--12--|--8---8--8--8--8--8--8----|
                                                                           
--------------------------|--------------------|--------------------------|
--------------------------|--------------------|--------------------------|
--------------------------|--------------------|--------------------------|
--8---8--8--8--8--8--8----|--0--0--------------|--8---8--8--8--8--8--8----|
                                                        
--------------------------|----------------------------|----------------------------|
--------------------------|----------------------------|----------------------------|
--------------------------|----------------------------|----------------------------|
--8---8--8--8--8--8--8/---|--12--12--12--0--0--12------|--0---0---0---0---14---12---|
                                                        
--------------------------|--------------------------|--------------------|
--------------------------|--------------------------|--------------------|
--------------------------|--------------------------|--------------------|
--8---8--8--8--8--8--8----|--8---8--8--8--8--8--8----|--0--0--------------|
                                                                    
--------------------|--------------------------|--------------------------||
--------------------|--------------------------|--------------------------||
--------------------|--------------------------|--------------------------||
--12---------(12)--|--8---8--8--8--8--8--8----|--8---8--8--8--8--8--8----||




 riff one                                            3x                    
|--------------------------|---------------------------||-------------------|
|*-------------------------|--------------------------*||-------------------|
|*-------------------------|--------------------------*||-------------------|
|---0--x-x-x-x-0------0----|--0h-3--3--3--3h-5--5--5---||--0----------------|




 riff two                                                                   
|-------------------------|-------------------------|------------------------|
|*------------------------|-------------------------|------------------------|
|*------------------------|-------------------------|------------------------|
|---0------0--0--0--0--0--|--2----2--2/-8--8--8--8--|--0------0--0--0--0--0--|
                                                     
-------------------------||
------------------------*||
------------------------*||
--2----2/---8--8--8--8---||




  verse two                                                      
||--------------------------|----------------------------|--------------------------|
||--------------------------|----------------------------|--------------------------|
||--------------------------|----------------------------|--------------------------|
||--0--0--0---12---12---0---|--0--14--12------0--10--12--|--8---8--8--8--8--8--8----|
                                                                          
--------------------------|----------------------|------------------------|
--------------------------|----------------------|------------------------|
--------------------------|----------------------|------------------------|
--8---8--8--8--8--8--8----|--0--0------12--------|----14--12-------(12)/--|
                                                      
--------------------------|--------------------------|
--------------------------|--------------------------|
--------------------------|--------------------------|
--8---8--8--8--8--8--8----|--8---8--8--8--8--8--8----|
                                                         
---------------------------|----------------------------|--------------------------|
---------------------------|----------------------------|--------------------------|
---------------------------|----------------------------|--------------------------|
--12-12-12-0--0--12/-14--0-|---12----12------0--10--12--|--8---8--8--8--8--8--8----|
                                                                          
--------------------------|--------------------|--------------------------||
--------------------------|--------------------|--------------------------||
--------------------------|--------------------|--------------------------||
--8---8--8--8--8--8--8----|--0--0--------------|--8---8--8--8--8--8--8----||




  riff two                                                                  
||-------------------------|-------------------------|------------------------|
||*------------------------|-------------------------|------------------------|
||*------------------------|-------------------------|------------------------|
||---0------0--0--0--0--0--|--2----2--2/-8--8--8--8--|--0------0--0--0--0--0--|

                       2x                    
-------------------------||
------------------------*||
------------------------*||
--2----2/---8--8--8--8---||



 
break                                                                        
-------------------|-------------------|-------------------|-------------------|
-------------------|-------------------|-------------------|-------------------|
-------------------|-------------------|-------------------|-------------------|
--0----------------|--0----------------|--0----------------|--0----------------|

3/4 time                                                                            
--------------|--------------|--------------|
--------------|--------------|--------------|
--------------|--------------|--------------|
--------------|--------------|--------------|
                                                                              2x
||----------------|---------------|--------------|--------------|---------------||
||*---------------|---------------|--------------|--------------|--------------*||
||*---------------|---------------|--------------|--------------|--------------*||
||---8------------|--0------------|--------------|--------------|---------------||

                back to 4/4 time              
---------------|--------------------------|--------------------------|
---------------|--------------------------|--------------------------|
---------------|--------------------------|--------------------------|
--8---------0--|--0--0--0--0--0--0--0--0--|--0--0--0--0--0--0--0--0--|

|---------------------------|---------------------------||
|*--------------------------|--------------------------*||
|*--------------------------|--------------------------*||
|---0--0--0--0--0--0--0--0--|--5--5--5--5--8--8--8--8---||

                                                     5x
---------------------------|---------------------------||
*--------------------------|--------------------------*||
*--------------------------|--------------------------*||
---0--0--0--0--0--0--0--0--|--0--5--5--5--5/-8--8--8---||

                                            *triplets*           3x
---------------------------------|---------------------------------||
*--------------------------------|--------------------------------*||
*--------------------------------|--------------------------------*||
---0----0------0--0----0----0----|--5----5----5----8----8----8-----||




riff one                                            3x                      
--------------------------|---------------------------||
*-------------------------|--------------------------*||
*-------------------------|--------------------------*||
---0--x-x-x-x-0------0----|--0h-3--3--3--3h-5--5--5---||


 

end.                                                                
---------------------|---------------------|--------------------|------------------||
---------------------|---------------------|--------------------|------------------||
---------------------|---------------------|--------------------|------------------||
--0--0------0--------|--0--------0--0------|--0--------0--------|--0--0------------||
Suggest correction
Give kudos to tab author, rate the tab!
1 2 3 4 5
comments
print report bad tab
1 comment total.
0 reply
AiLd_14 72 Dec 27, 2006 03:29 AM

the 1st 2 bars of verse one is wrong, there anrt any brakes he keeps, and he plays the high D's forst then the low ones

guest
You may want to rate the tab now too:
select rating
Wanna post a correction for this tab? Suggest correction