Oops, an error
Loading. Please wait.

I Hope Youre Alone Bass Tab

235 views 1 this week
2 commentsread comments
1 2 3 4 5
please rate
add to favorites
launch autoscroll
font size
0
reset
guitar tuner
Autoscroll
slow
fast
+/-
esc
set tempo
stop
Help us to improve Ultimate-Guitar.com Take our survey!
×
Difficulty
novice
This is the bass tab intro to I hope your'e alone by thursday.

please feel free to correct me at xxtravxcorexx@yahoo.com


G-------------------------------------|
D-22222222/55557545-------------------|
A-------------------------------------|
E-------------------------------------|

G-------------------------------------|
D-------4-----4---4-------5-----5---5-|
A-22------22----2----33-----33-----3--|
E-------------------------------------|
Suggest correction
Give kudos to tab author, rate the tab!
1 2 3 4 5
comments
print report bad tab
2 comments total.
0 reply
F.F.T.L 10 wrote on November 14 2007, 10:10 pm

the 5's are sposed to be played on the G string

0 reply
F.F.T.L 10 wrote on November 14 2007, 10:13 pm

G------------------------5-----5----5-|
D-------4-----4---4-------------------|
A-22------22----2----33-----33-----3--
|
E-------------------------------------|

guest
You may want to rate the tab now too:
select rating
Please do not post tabs as comments. Select "correction" instead!