Oops, an error
Loading. Please wait.

Jet Black New Year Tab

version 1
version 1

Whole song

Interactive

6,840 views 6 this week
6 commentsread comments
1 2 3 4 5
excellent!
x 7
add to favorites
launch autoscroll
font size
0
reset
how to read this tab
guitar tuner
Autoscroll
slow
fast
+/-
esc
set tempo
stop
Help us to improve Ultimate-Guitar.com Take our survey!
×
Author
Thursday
"Jet Black New Year"
Five Stories Falling EP
Tabbed By: Joseph Simons
E-Mail: JWS2099@aol.com

Tuning: Drop D
        (DADGBe)


0:00-0:21  (Intro Pt. 1)> 4X
  e<|-------------------------------------------------------------|
  B<|-------------------------------------------------------------|
  G<|-xxxxxxxx-7-7-7-xxxxxxxx-7-7-7-xxxxxxxx-7-7-7-xxxxxxxx-7-7-7-|
  D<|-xxxxxxxx-x-x-x-xxxxxxxx-x-x-x-xxxxxxxx-x-x-x-xxxxxxxx-7-8-x-|
  A<|-xxxxxxxx-5-5-5-xxxxxxxx-5-5-5-xxxxxxxx-5-5-5-xxxxxxxx-5-5-5-|
  D<|-xxxxxxxx-0-0-0-xxxxxxxx-0-0-0-xxxxxxxx-0-0-0-xxxxxxxx-0-0-0-|

0:22-0:33  (Intro Pt. 2)> 1x
  e<|-----------------------------------------------------------------|
  B<|-----------------------------------------------------------------|
  G<|------7-7--xxxxx--7--x--7 / 14--x-------7-7--xxxxx--7--x--7 / 17-|
  D<|-0-0--x-x--xxxxx--x--x--x--- x--x--0-0--x-x--xxxxx--x--x--x--- x-|
  A<|-0-0--5-5--xxxxx--5--x--5 / 12--x--0-0--5-5--xxxxx--5--x--5 / 15-|
  D<|-0-0--0-0--xxxxx--0--x----------x--0-0--0-0--xxxxx--0--x---------|

  e<|--------------------------------------------------------------|
  B<|--------------------------------------------------------------|
  G<|------7-7--xxxxx--7--x--7 / 14---15 \ 14 / 15 \ 14 \ 12-xx-12-|
  D<|-0-0--x-x--xxxxx--x--x--x--- x--- x--- x--- x--- x--- x-xx- x-|
  A<|-0-0--5-5--xxxxx--5--x--5 / 12---13 \ 12 / 13 \ 12 \ 10-xx-10-|
  D<|-0-0--0-0--xxxxx--0--x------------------------------xx--------|

0:34-0:57  (Verse 1)> 1x
  e<|----------------------------------------|
  B<|----------------------------------------|
  G<|-21 \ 17 / 19 \ 16----21 \ 17 / 19 \ 16-| (play each note a lot)
  D<|- x--- x--- x--- x---- x--- x--- x--- x-|
  A<|-19 \ 15 / 17 \ 14----19 \ 15 / 17 \ 14-|
  D<|----------------------------------------|

  e<|-----------------------------------------------|
  B<|-----------------------------------------------|
  G<|-21-21--xxxx--21-21--xxxx--10-9-5-7-9-b-10-r-9-|
  D<|- x- x--xxxx-- x- x--xxxx-- x-x-x-x-x--- x---x-|
  A<|-19-19--xxxx--19-19--xxxx---8-7-3-5-7-b--8-r-7-|
  D<|--------xxxx---------xxxx----------------------|

0:58-1:22  (Chorus Pt. 1)> 2x
  e<|-0----------7--------8----------10--------|
  B<|-3-3-5-3----8-8------8--8-------13--------|
  G<|-2-------2--9---9----10---10----12--------|
  D<|-0----------7-----7--8-------8--10--------|
  A<|-0----------7--------8----------10--------|
  D<|-0----------7--------8----------10--------|

1:23-1:34  (Chorus Pt. 2)
  e<|-----------------------------------------------------------------|
  B<|-----------------------------------------------------------------|
  G<|------7-7--xxxxx--7--x--7 / 14--x-------7-7--xxxxx--7--x--7 / 17-|
  D<|-0-0--x-x--xxxxx--x--x--x--- x--x--0-0--x-x--xxxxx--x--x--x--- x-|
  A<|-0-0--5-5--xxxxx--5--x--5 / 12--x--0-0--5-5--xxxxx--5--x--5 / 15-|
  D<|-0-0--0-0--xxxxx--0--x----------x--0-0--0-0--xxxxx--0--x---------|

  e<|-----------------------------------------------------------------------|
  B<|-----------------------------------------------------------------------|
  G<|------7-7--xxxxx--7--x--7 / 14---15 \ 14 / 15 \ 14 / 15 \ 14 / 15 / 17-|
  D<|-0-0--x-x--xxxxx--x--x--x--- x--- x--- x--- x--- x--- x--- x--- x--- x-|
  A<|-0-0--5-5--xxxxx--5--x--5 / 12---13 \ 12 / 13 \ 12 / 13 \ 12 / 13 / 15-|
  D<|-0-0--0-0--xxxxx--0--x-------------------------------------------------|

1:35-1:46  (Verse 2 Pt. 1)> 1x
  e<|--------------------------------------------|
  B<|--------------------------------------------|
  G<|-7-7-7--7-7-7--7-7-7--7-7--x--7-7--2-2--3-3-|
  D<|-8-8-8--8-8-8--8-8-8--8-8--x--7-7--2-2--3-3-|
  A<|-5-5-5--5-5-5--5-5-5--5-5--x--5-5--0-0--1-1-|
  D<|----------------------5-5--x--5-5--0-0--1-1-|

1:47-2:06  (Verse 2 Pt. 1)> 3x
  e<|-------------------------------------------------------|
  B<|-------------------------------------------------------|
  G<|-7-7--xxxxxxxx--7-7--xxxxxxxx--8-8--xxxxxxxx--3-3--2-2-|
  D<|-8-8--xxxxxxxx--7-7--xxxxxxxx--7-7--xxxxxxxx--3-3--2-2-|
  A<|-5-5--xxxxxxxx--5-5--xxxxxxxx--5-5--xxxxxxxx--1-1--0-0-|
  D<|-5-5--xxxxxxxx--5-5--xxxxxxxx--5-5--xxxxxxxx--1-1--0-0-|

2:07-2:12
  e<|-----------------------------|
  B<|------(12)-------------------|
  G<|-0----(12)--///--Slide--\\\--|
  D<|-0----(12)-------------------|
  A<|-0---------------------------|
  D<|-0---------------------------|

2:13-2:24  (Prechorus)> 4x
  e<|--------------------------------------|
  B<|--------------------------------------|
  G<|-0-0-0--7-7-7--0-0-0--7-7-7--0-0--7-7-|
  D<|-0-0-0--x-x-x--0-0-0--7-7-7--0-0--x-x-|
  A<|-0-0-0--5-5-5--0-0-0--5-5-5--0-0--5-5-|
  D<|-0-0-0---------0-0-0---------0-0------|

2:25-2:48  (Chorus Pt. 1)> 
  e<|-0----------7--------8----------10--------|
  B<|-3-3-5-3----8-8------8--8-------13--------|
  G<|-2-------2--9---9----10---10----12--------|
  D<|-0----------7-----7--8-------8--10--------|
  A<|-0----------7--------8----------10--------|
  D<|-0----------7--------8----------10--------|

2:49-2:58
  e<|------------------------------------------------------------------------------|
  B<|------------------------------------------------------------------------------|
  G<|-0-0-0-0-xxx-7-b-9-r-7--0-0-0-0-xxx-7 \ 5 / 7--0-0-0-0-xxx-7-b-9-r-7--0-0-0-0-|
  D<|-0-0-0-0-xxx-x---x---x--0-0-0-0-xxx-x---x---x--0-0-0-0-xxx-x---x---x--0-0-0-0-|
  A<|-0-0-0-0-xxx-5-b-7-r-5--0-0-0-0-xxx-5 \ 3 / 5--0-0-0-0-xxx-5-b-7-r-5--0-0-0-0-|
  D<|-0-0-0-0----------------0-0-0-0----------------0-0-0-0----------------0-0-0-0-|

2:59-3:44  (Bridge)> 1x
  e<|----------------------------------------------------------|
  B<|-3--3--6--8----3--3--6--8----10--10--13--15----10--10--13-|
  G<|-2--2--5--7----2--2--5--7----9---10--12--14----9---10--12-| (play each note
  D<|-0--2--3--5----0--2--3--5----7---8---10--12----7---8---10-| 16 times)
  A<|----------------------------------------------------------|
  D<|----------------------------------------------------------|

3:45-3:47 (Bridge Ending)> 1x
  e<|-----------------------------|
  B<|-----------------------------|
  G<|-15 \ 14 / 15 / 17 \ 15 \ 14-|
  D<|- x--- x--- x--- x--- x--- x-|
  A<|-13 \ 12 / 13 / 15 \ 13 \ 12-|
  D<|-----------------------------|

3:48-4:11  (Final Chorus)> 2x
  e<|-----------------------------------------------------------------|
  B<|-----------------------------------------------------------------|
  G<|------7-7--xxxxx--7--x--7 / 14--x-------7-7--xxxxx--7--x--7 / 17-|
  D<|-0-0--x-x--xxxxx--x--x--x--- x--x--0-0--x-x--xxxxx--x--x--x--- x-|
  A<|-0-0--5-5--xxxxx--5--x--5 / 12--x--0-0--5-5--xxxxx--5--x--5 / 15-|
  D<|-0-0--0-0--xxxxx--0--x----------x--0-0--0-0--xxxxx--0--x---------|


  e<|-----------------------------------------------------------------------|
  B<|-----------------------------------------------------------------------|
  G<|------7-7--xxxxx--7--x--7 / 14---15 \ 14 / 15 \ 14 / 15 \ 14 / 15 / 17-|
  D<|-0-0--x-x--xxxxx--x--x--x--- x--- x--- x--- x--- x--- x--- x--- x--- x-|
  A<|-0-0--5-5--xxxxx--5--x--5 / 12---13 \ 12 / 13 \ 12 / 13 \ 12 / 13 / 15-|
  D<|-0-0--0-0--xxxxx--0--x-------------------------------------------------|

4:12-4:49  (Outro)> 1x
  e<|-------------------------------------------------|
  B<|-------------------------------------------------|
  G<|-19 \ 17 \ 15 \ 14 / 15 \ 14 \ 7 / 9 \ 5 / 8 \ 7-|
  D<|- x--- x--- x--- x--- x--- x---x---x---x---x---x-|
  A<|-17 \ 15 \ 13 \ 12 / 13 \ 12 \ 5 / 7 \ 3 / 6 \ 5-|
  D<|-------------------------------------------------|

  e<|------------------------------------------------------------------------|
  B<|------------------------------------------------------------------------|
  G<|-19 \ 17 \ 15 \ 14 / 15 \ 14--0-0-0--7-7-7--0-0-0--7-7-7--0-0--7-7--0~ -|
  D<|- x--- x--- x--- x--- x--- x--0-0-0--8-8-8--0-0-0--8-8-8--0-0--8-8--0~ -|
  A<|-17 \ 15 \ 13 \ 12 / 13 \ 12--0-0-0--5-5-5--0-0-0--5-5-5--0-0--5-5--0~ -|
  D<|------------------------------0-0-0---------0-0-0---------0-0-------0~ -|


Lyrics:
-----------------------------
Don't even take a breath. 
The air is cut with cyanide. 
In honor of the New Year. 

The press gives us cause to celebrate: 
These air raid sirens 
Flooded barbed wire skylines, 
By artificial night, 
As we sleep to burn the red 
From our bloodless lives. 
Tonight we're all time bombs 
on fault lines. 

Have we lost everything now? 
We're walking like each other's ghosts 
Around these silent streets 
(the sedatives tell you everything is alright) 
Like calendars dying at New Year's Eve parties, 
As we kiss hard on the lips 
And swear this year will be better than the last. 

Jet Black - the ink that spells your name. 
Jet Black - the blood that's in your veins. 
We say, "How long can we take this chance not to celebrate?" 

There's music playing 
But we dance to the beat 
Of our own black hearts 
And draw diagrams 
Of suicide on each other's wrists, 
Then trace them with razorblades. 

Fire to Flames, 
"Strike Match." 

Burn these words from our lips 
As 'The Dagger' screams, 
"Love is dead," 
and it's a "newspaper tragedy." 

Have we lost what we love? 
Have we said everything? 
Does it change anything? 
Stare at the clock, 
Avoid at al costs, 
This emptiness. 

Ten seconds left. 
until midnight. 
nine chances to drown ourselves 
in black hair dye 
eight faces turned away 
from the shock: 
seven windows and six of them 
were locked. 
five stories falling 
forever and ever. 
three cheers to the mirror. 
now there are two of us. 
Can we have one last dance? 
How long can we take this chance not to celebrate life?
Suggest correction
What's this?
You can suggest a correction to this tab. Community and Mods will review your correction and vote to approve or reject it.
comments
print report bad tab
6 comments total. Showing first comments.
0 reply
Guitardude1470 47 wrote on April 9 2007, 06:14 pm

good tab.....but the part for 2:07-2:12

e

0 reply
Guitardude1470 47 wrote on April 9 2007, 06:15 pm

should be 5th fret harmonics not 12th

0 reply
Guitardude1470 47 wrote on April 9 2007, 06:15 pm

should be 5th fret harmonics not 12th

guest
You may want to rate the tab now too:
select rating
Please do not post tabs as comments. Select "correction" instead!