Oops, an error
Loading. Please wait.

Love Song Writer Bass Tab

671 views 1 this week
1 commentread comment
1 2 3 4 5
please rate
add to favorites
launch autoscroll
font size
0
reset
guitar tuner
Autoscroll
slow
fast
+/-
esc
set tempo
stop
Help us to improve Ultimate-Guitar.com Take our survey!
×
the tuning might be different so feel free to try any tuning
mostly right

repeat this (4x) and at the 4th one don't do the three

with the flick of his wrist
E-----------------3------------------------------|
A---0------3-------------------------------------|
D------------------------------------------------|
G------------------------------------------------|
and its all just made up (2x)
if you don't like the 0 try the 5 and bend
E----7------------------------3---1--------------|
A------7-9-0(bend)----555--3---------------------|
D------------------------------------------------|
G------------------------------------------------|
after, cant play them for anyone
E----------------------------------------------------|
A---99999-9-999-99999-9-999-7777-7777-6666-6666------|
D----------------------------------------------------|
G----------------------------------------------------|

E----------------------------------------------------|
A---99999-9-999-55555-5-555-7777-7777-6666-6666------|
D----------------------------------------------------|
G----------------------------------------------------|

E----------------------------------------------------|
A---99999-9-999-99999-9-999-7777-7777-6666-6666------|
D----------------------------------------------------|
G----------------------------------------------------|


E----------------------------------------------------|
A---99999-9-999-55555-5-555-7777-7777-6666-6666------|
D----------------------------------------------------|
G----------------------------------------------------|

4x
E----7------------------------3---1--------------|
A------7-9-0(bend)----555--3---------------------|
D------------------------------------------------|
G------------------------------------------------|
after theres always a way out
E----------------------------------------------------|
A---99999-9-999-99999-9-999-7777-7777-6666-6666------|
D----------------------------------------------------|
G----------------------------------------------------|

E----------------------------------------------------|
A---99999-9-999-55555-5-555-7777-7777-6666-6666------|
D----------------------------------------------------|
G----------------------------------------------------|

E----------------------------------------------------|
A---99999-9-999-99999-9-999-7777-7777-6666-6666------|
D----------------------------------------------------|
G----------------------------------------------------|

E----------------------------------------------------|
A---99999-9-999-55555-5-555-7777-7777-6666-6666------|
D----------------------------------------------------|
G----------------------------------------------------|
4x
E----7------------------------3---1--------------|
A------7-9-0(bend)----555--3---------------------|
D------------------------------------------------|
G------------------------------------------------|

5x
E----------------------------------------------------|
A---99999-9-999-99999-9-999-7777-7777-6666-6666------|
D----------------------------------------------------|
G----------------------------------------------------|

E----------------------------------------------------|
A---99999-9-999-55555-5-555-7777-7777-6666-6666------|
D----------------------------------------------------|
G----------------------------------------------------|

Fifty red roses falling apart
all 4x

         2x
E--[---------------]-------------------------------|
A--[-333333/9(bend)]--333333222222111111000000-----|
D--[---------------]-------------------------------|
G--[---------------]-------------------------------|

3x
E----7------------------------3---1--------------|
A------7-9-0(bend)----555--3---------------------|
D------------------------------------------------|
G------------------------------------------------|
                                           4x
E----7------------------------3---1--[-11-1-11----]
A------7-9-0(bend)----555--3---------[------------]
D------------------------------------[------------]
G------------------------------------[------------]
Suggest correction
Give kudos to tab author, rate the tab!
1 2 3 4 5
comments
print report bad tab
1 comment total.
0 reply
zaingasm 31 wrote on May 4 2009, 06:13 pm

This is just teribly wrong. First, you have the tabs WRITTEN wrong. The strings should be in this order...
G----
D----
A----
E----
And then, the tuning is wrong too. It should be in drop D. I know you said it might not be the correct tuning, but I tried it in both standard and drop D, and it still didn't work. You should go back to the writing board and try again.

guest
You may want to rate the tab now too:
select rating
Please do not post tabs as comments. Select "correction" instead!