Oops, an error
Loading. Please wait.

Lovesong Writer Tab

5,025 views 9 this week
1 commentread comment
1 2 3 4 5
excellent!
x 5
add to favorites
launch autoscroll
font size
0
reset
how to read this tab
guitar tuner
Tab Pro tools
  • play this tab
  • loop segment
  • change instrument
  • show fretboard
  • metronome
×
Best way to learn
"Lovesong Writer"
Autoscroll
slow
fast
+/-
esc
set tempo
stop
Contributor
Difficulty
Tuning
intermediate
D A D G B E
Thursday-- 'Love Song Writer'
Album.. A City By The Light Divided


Tabbed by.. Alex Olson
4.23.06

This is a sweet song from Thursday's new album which will be out May 2nd.

Tuning.. Drop D (DADGBe)

(0.00-1.02)
Clean
|---------------------------------------------------|x7
|--9--9---------9--9------8-----8------------8------|
|10-10-10-10-10--10--10-10-10-10-10-10---10---10-10-|
|--------------------------------------10--10-------|
|---------------------------------------------------|
|---------------------------------------------------|

|--------------------------|x1
|--9--9---------9--9-------|
|10-10-10-10-10--10--10-10-|
|--------------------------|
|--------------------------|
|--------------------------|


(1.02-1.18)
Trem Pick with Distortion
|--------------|x2
|--------------|
|13--12--9--7-9|
|-x---x--x--x-x|
|11--10--7--5-7|
|--------------|


(1.27-1.31)
Light Distortion
|----------------------------|x1
|----------9-----9-----9-----|
|13-15-12~-9h10--9h10--9h10--|
|----------------------------|
|----------------------------|
|----------------------------|

Piano plays descending chords 2 times
On second time the guitar joins in

(1.43-1.50)
Light Distortion
|------------------------------|x1
|------------9--9--9--9--------|
|13-15--12~--10-10-10-10--9/10~|
|------------------------------|
|------------------------------|
|------------------------------|


(1.51-1.59)
Clean
|---------------------------------------------------|x1
|--9--9---------9--9------8-----8------------8------|
|10-10-10-10-10--10--10-10-10-10-10-10---10---10-10-|
|--------------------------------------10--10-------|
|---------------------------------------------------|
|---------------------------------------------------|
|
|---------------------------------------------------|
|---------------------------------------------------|
|---------------------------------------------------|
|---------------------------------------------------|
|----------------------------------------------5~---|
|-6~---------8~--------6-----8-------3~-------------|

(1.59-2.03)
Clean
|--------------------------|x1
|--9--9---------9--9-------|
|10-10-10-10-10--10--10-10-|
|--------------------------|
|--------------------------|
|--------------------------|
|
|--------------------------|
|--------------------------|
|--------------------------|
|--------------------------|
|--------------------------|
|--3h5h6~-------8~---9~----|


(2.03-2.35)
Trem Pick with Distortion
|--------------|x4
|--------------|
|13--12--9--7-9|
|-x---x--x--x-x|
|11--10--7--5-7|
|--------------|


(2.45-2.51)
Light Distortion
|-----------------------------------------|x1
|-------------9-----9-----9--------8b9b8--|
|10-13-15-12~-9h10--9h10--9h10-10-------10|
|-----------------------------------------|
|-----------------------------------------|
|-----------------------------------------|


(3.00-3.10)
Light Distortion
|-------------------------------------------------------|
|-------------------------------------------------------|
|10-10--10-10--10-10--10-10--10-10--10-10--10-10--10-10-|
|-------------------------------------------------------|
|-------------------------------------------------------|
|-------------------------------------------------------|


(3.10-3.25)
Light Distortion
|-----------------------------------------------|x2
|9--9---9--9---9--9---9--9---8-8--8-8--6-6--5-5-|
|10-10--10-10--10-10--10-10--9-9--9-9--7-7--6-6-|
|-----------------------------------------------|
|-----------------------------------------------|
|-----------------------------------------------|


(3.25-3.55)
Clean
|---------------------------------------------------|x3
|--9--9---------9--9------8-----8------------8------|
|10-10-10-10-10--10--10-10-10-10-10-10---10---10-10-|
|--------------------------------------10--10-------|
|---------------------------------------------------|
|---------------------------------------------------|
 
|--------------------------|x1
|--9--9---------9--9-------|
|10-10-10-10-10--10--10-10-|
|--------------------------|
|--------------------------|
|--------------------------|


Trem Pick with Distortion
(3.56-4.28)
|--------------|x4
|--------------|
|13--12--9--7-9|
|-x---x--x--x-x|
|11--10--7--5-7|
|--------------|

Random Noises and Feedback til the end.

thursvai@gmail.com.. email me if you have any questions.

Enjoy.
comments
print report bad tab
1 comment total.
0 reply
FallXFromXGrace wrote on August 8 2006, 02:03 pm

Awesome tab! 5 Stars.

I want to post or [tab]
guest
You may want to rate the tab now too:
select rating
Please do not post tabs as comments. Select "correction" instead!