Oops, an error
Loading. Please wait.

Standing On The Edge Of Summer bass

version 1
version 1

Whole song

Interactive

1,075 views 1 this week
no commentswrite comment
1 2 3 4 5
1 last vote to show rating
add to favorites
×
Save as Personal and add changes to this tab that will be seen only by you. Learn more ›
×
You can save this tab as Personal to edit and correct it or add notes. All changes will be seen only by you. Learn more »
launch autoscroll
font size
0
reset
guitar tuner
edit
Autoscroll
slow
fast
+/-
esc
set tempo
stop
----------------------------------------------------
Thursday - Standing on the Edge of Summer # Bass tab
----------------------------------------------------

tabbed by: tuedel
e-mail: tuedel [at] gmail [dot] com

tuning: dropped d (dadg) or fivestring

version: album (studio)

-------------------------------------------------------------
this may be not 100% accurate, but i think it's a good basis
i'm not that sure about the f# in the chorus-part
if you have any suggestions, please write a mail!

Symbols:
h	Hammer on
p	Pull off
,	"shorter note" (hard to tab)
/	slide up
\	slide down
*	let ring


listen to the song for correct timing


here we go...
-------------------------------------------------------------

Intro
G|----------------------------------|-------------------------------------|
D|--------,-------,-----------------|--------,-------,----------,---------|
A|-555555-5555555-5-------,-------,-|-555555-5555555-5/(9)99999-99999-----|
D|-----------------444444-4444444-4-|--------------------------------0000-|

(second guitar comes in)
G|----------------------------------|------------------------------------|
D|----------------------------------|------------------------------------|
A|--------,-------,-------,-------,-|--------,-------,-------,-----------|
D|-000000-0000000-0444444-4444444-4-|-000000-0000000-0444444-4444444-477-|


Verse 1			[in this room...]
G|------------------------------|--------------------|-----------------|
D|----7-7---7-7-----------------|---------,----,-----|-----------------|
A|-5-5---5-5---55-------------0-|-5-5---555h7-77h9p7-|--------0-000--0-|
D|----------------4-4247-77724--|----4-4-------------|-4-44424-----24--|

G|------------------------------|-------------------------------|
D|----7-7---7-7-----------------|-------------------------------|
A|-5-5---5-5---55-------------0-|5-55-55-55-55------------------|
D|----------------4-4247-77724--|---------------4--44--44h777-7-|


Pre-Chorus		[before you knock me 'do-...]
=> Intro

Chorus (6/8) 		[' in this house of cards...]
G|----------------------|---------------------------|
D|------4-4444p2-2222---|---------------------------|
A|-5---5-------------00-|---------------------------|
D|---46-----------------|-55-5-555/12-12-5-5555\0-0-|

G|-----------------|--------------------------|
D|-----4-4p2-2222--|--------------------------|
A|---------------0-|--------------------------|
D|-4-44------------|-444444000000444444000000-|

G|-----------------|------------------------------------|
D|-----4-4p2-2222--|------------------------------------|
A|---------------0-|------------------------------------|
D|-4-44------------|-4444444/(12)1212121212444444000000-|

G|-----------------|------------------------------------|
D|-----4-4p2-2222--|------------------------------------|
A|---------------0-|----4-------4-----------------------|
D|-4-44------------|-0----0-00--------------------------|


Verse 2			[so we 'stay...]

G|---------------|--------------|
D|---------------|--------------|
A|-------------0-|5-55-55-55-55-|
D|-4-4247-77724--|--------------|

G|---------------|-------------------|
D|---------------|-------------------|
A|-------------0-|5-5---555h7-77h9p7-|
D|-4-4247-77724--|---4-4-------------|

G|---------------|--------------|
D|---------------|--------------|
A|-------------0-|5-55-55-55-55-|
D|-4-4247-77724--|--------------|


G|-----------------|
D|-----------------|
A|-----------------|
D|-4-44-24/777-777-|


Pre-Chorus
=> Intro

Chorus (6/8) 		[' in this house of cards...]
G|----------------------|---------------------------|
D|------4-4444p2-2222---|---------------------------|
A|-5---5-------------00-|---------------------------|
D|---46-----------------|-55-5-555/12-12-5-5555\0-0-|

G|-----------------|--------------------------|
D|-----4-4p2-2222--|--------------------------|
A|---------------0-|--------------------------|
D|-4-44------------|-444444000000444444000000-|

G|-----------------|------------------------------------|
D|-----4-4p2-2222--|------------------------------------|
A|---------------0-|------------------------------------|
D|-4-44------------|-4444444/(12)1212121212444444000000-|

G|-----------------|
D|-----------------|
A|-2222-0000-------|
D|-----------------|

Outro			[pull your punches...] 

G|----------------------|		,
D|----------------------|		 \
A|----------------------|		 |
D|-5-5555-252444444/7-7-|		 |
					 |
G|--------------|-----------------|	 |
D|--------------|-----------------|	 |\ two
A|----4-------4-|----4-------5h74-|	 |/ times
D|-0----0-00----|-0----0-00-------|	 |
					 |
G|--------------|-----------------|	 |
D|--------------|-----------------|	 |
A|----4-------4-|----4-------5h74-|	 /
D|-0----0-00----|-0----0-00-------|	'


G|-----------------------|---------------|
D|-----------------------|---------------|
A|-----------------------|----4-------4*-|
D|-5555555-25244444/7777-|-0----0-00-----|



-------------------------------------------------------------
thanks for reading.
live version of this song (on five stories falling ep) to be
tabbed later. it does not differ in many parts, but there are
some really nice gimmicks in it :)

have fun!
-------------------------------------------------------------
Suggest correction
Creating personal tab
Creating personal tab
You can edit any tab online and save it as your Personal.

You can edit, replace or remove any tab part or add personal notes – all changes will be seen only by you.

Personal tabs can be accessed anytime from any device, even offline.
Learn more »
Give kudos to tab author, rate the tab!
1 2 3 4 5
comments
print report bad tab
guest
Wanna post a correction for this tab? Suggest correction