Oops, an error
Loading. Please wait.

Exalted tab

157 views 9 this week
no commentswrite comment
1 2 3 4 5
2 more votes to show rating
add to favorites
×
Save as Personal and add changes to this tab that will be seen only by you. Learn more ›
×
You can save this tab as Personal to edit and correct it or add notes. All changes will be seen only by you. Learn more »
launch autoscroll
font size
0
reset
how to read this tab
guitar tuner
edit
Autoscroll
slow
fast
+/-
esc
set tempo
stop
About this tab version
This tab is based off the studio recorded version of "Exalted", first song on the "Rock'n Roll Consciousness" album. Was this info helpful? Yes No
Tuning: CGDGCD
Thurston Moore: TM (left guitar) 
James Sedwards: JS (right guitar)

[Intro A]
TM
D|-----------------0--|----------------0--|----------------0--|----------------0--|
C|--------------0-----|-------------0-----|-------------0-----|-------------0-----|
G|-----------0--------|----------0--------|----------0--------|----------0--------|
D|-------17-----------|------17-----------|------17-----------|------17-----------|
G|---17---------------|--17---------------|--17---------------|--17---------------|
C|--------------------|-------------------|-------------------|-------------------|

[Intro B] 
JS
D|---------------16--|---------------16--|---------------16--|---------------16--|
C|-------------0-----|-------------0-----|-------------0-----|-------------0-----|
G|----------0--------|----------0--------|----------0--------|----------0--------|
D|------17-----------|------17-----------|------17-----------|------17-----------|
G|--17---------------|--17---------------|--17---------------|--17---------------|
C|-------------------|-------------------|-------------------|-------------------|
  played along with Intro A as from 0:09, then repeat 7 times.

[Riff A]
01:10
TM
D|------------------|--17--17--17--17--|--17--17--17--17--|--17--17--17--17--|
C|------------------|--0---0---0---0---|--0---0---0---0---|--0---0---0---0---|
G|------------------|--17--17--17--17--|--0---0---0---0---|--17--17--17--17--|
D|------------------|------------------|--0---0---0---0---|–-0---0---0---0---|
G|--17--17--17--17--|------------------|--17--17--17--17--|--17--17--17--17--|
C|------------------|------------------|--0---0---0---0---|--0---0---0---0---|
while JS strums the highest notes behind the bridge.

[Riff B]
02:00
TM  
    (x7)(x3)(x3)     (x4)(x2)  (x6)  (x13) 
D|--8—----------|----3---0--0--0--|--12--|
C|--10--0---0---|----2---2--0--0--|--14--|
G|--0---10--10--|----0---0--0--0--|--0---|
D|--8---8---8---|----3---3--3--3--|--12--|
G|--0---0---0---|----0---0--0--0--|--0---|
C|--0---0---0---|-----------------|--0---|
while JS still strums the highest notes behind the bridge.

[Riff C]
02:12
TM  
    (x13)  (x7)    (x6)     (x4)(x2)  (x6)  (x13) 
D|--17--|--8—----------|----3---0--0--0--|--12--|
C|--19--|--10--0---0---|----2---2--0--0--|--14--|
G|--0---|--0---10--10--|----0---0--0--0--|--0---|
D|--17--|--8---8---8---|----3---3--3--3--|--12--|
G|--0---|--0---0---0---|----0---0--0--0--|--0---|
C|--0---|--0---0---0---|-----------------|--0---|

JS
    (x13) (x13)           (x13)            (x13) 
D|--5--|--3------------|--5--------------|--1---|
C|--7--|--5------------|--7--------------|--3---|
G|--0--|--0------------|--0--------------|--0---|
D|--5--|--3------------|--5--------------|--1---|
G|--0--|--0------------|--0--------------|--0---|
C|--0--|--0------------|--0--------------|--0---|
repeat 3 times during TM and JS interplay.

[Riff D] 
03:01
TM  
    (x13) 
D|--12--|
C|--14--|
G|--0---|
D|--12--|
G|--0---|
C|--0---|

JS
    (x13) 
D|--1---|
C|--3---|
G|--0---|
D|--1---|
G|--0---|
C|--0---|
Repeat 2 times

[Riff E]
03:11
TM   
D|-----------------------------15--12--12--12--12--12--12--12--12--12--12--|
C|-------------------------12----------------------------------------------|
G|-----------------12--15--------------------------------------------------|
D|-------------15----------------------------------------------------------|
G|--15--15\12--------------------------------------------------------------|
C|-------------------------------------------------------------------------|

JS 
D|--5---|
C|--7---|
G|--0---|
D|--5---|
G|--0---|
C|--0---|this chord all over the riff
Repeat 3 times

[Riff F]
03:33
TM   
D|-----------------------------15--12--12--12--12--12--12--12--12--12--12--|
C|-------------------------12----------------------------------------------|
G|-----------------12--15--------------------------------------------------|
D|-------------15----------------------------------------------------------|
G|--15--15\12--------------------------------------------------------------|
C|-------------------------------------------------------------------------|

JS 
   (x14)(x2)
D|--5---6--5--|
C|--7---8--7--|
G|--0---0--0--|
D|--5---6--5--|
G|--0---0--0--|
C|--0---0--0--|

[Riff G]
03:41
TM   
D|-----------------------------15--12--12--12--12--12--12--12--12-12--12--|
C|---------------------15--12---------------------------------------------|
G|-----------------12-----------------------------------------------------|
D|-------------15---------------------------------------------------------|
G|--15--15\12-------------------------------------------------------------|
C|------------------------------------------------------------------------|

JS 
   (x9)      (x2)(x2)     
D|--5---6--5--5--6--5--|
C|--7---8--7--7--8--7--|
G|--0---0--0--0--0--0--|
D|--5---6--5--5--6--5--|
G|--0---0--0--0--0--0--|
C|--0---0--0--0--0--0--|

[Riff H]
03:49
TM   
D|-----------------------------15--12--12--12--12--12--12--12--12--12--12--|
C|-------------------------12----------------------------------------------|
G|-----------------12--15--------------------------------------------------|
D|-------------15----------------------------------------------------------|
G|--15--15\12--------------------------------------------------------------|
C|-------------------------------------------------------------------------|

JS 
   (x14)(x2)
D|--5---6--5--|
C|--7---8--7--|
G|--0---0--0--|
D|--5---6--5--|
G|--0---0--0--|
C|--0---0--0--|

[Riff I]
03:57
TM   
D|-----------------------------15--12--12--12--12--12--12--12--12-12--12--|
C|---------------------15--12---------------------------------------------|
G|-----------------12-----------------------------------------------------|
D|-------------15---------------------------------------------------------|
G|--15--15\12-------------------------------------------------------------|
C|------------------------------------------------------------------------|

JS 
D|--5---|
C|--7---|
G|--0---|
D|--5---|
G|--0---|
C|--0---|this chord all over the riff

[Riff J]
04:05
TM (x12) (x8)  (x4) (x12) (x12)
D|--12----7--|--7--|--5----7--|
C|--14----9--|--9--|--7----9--|
G|--12----7--|--7--|--5----7--|
D|--13----8--|--8--|--6----8--|
G|--12----7--|--7--|--5----7--|
C|--12----7--|--7--|--5----7--|

JS 
D|-----------|----------------|---------------------------|
C|-----------|--8/9--7--5--7--|--7~--5--5~--7--5--7--7~--|
G|-----------|----------------|---------------------------|
D|-----------|----------------|---------------------------|
G|-----------|----------------|---------------------------|
C|-----------|----------------|---------------------------|
               starts solo with sustained overdrive as from 04:11
         
[Riff K]
04:20
TM (x12) (x12) (x12) (x12)
D|--12----7--|--5----7--|
C|--14----9--|--7----9--|
G|--12----7--|--5----7--|
D|--13----8--|--6----8--|
G|--12----7--|--5----7--|
C|--12----7--|--5----7--|

JS 
D|------------------------------|-------------------------------------------------------------------|
C|--5/7--5/7--5--3--5--5--3--3--|-------------------------------------------------------------------|
G|------------------------------|--5--5--5/7\5/7\5--5--7--5--7--7--7/8\7--8--10--8--10--12--10--12--|
D|------------------------------|-------------------------------------------------------------------|
G|------------------------------|-------------------------------------------------------------------|
C|------------------------------|-------------------------------------------------------------------|

04:36
TM (x12) (x12) (x12) (x12)
D|--12----7--|--5----7--------------|
C|--14----9--|--7----9--------------|
G|--12----7--|--5----7--------------|
D|--13----8--|--6----8--------------|
G|--12----7--|--5----7--------------|
C|--12----7--|--5----7--------------|

JS solo during TM 2 first chords 
D|-----------------------------------------------------------|
C|--10--12--12~--14/15\14--12--14/15\14--12--14--14\15--14~--|
G|-----------------------------------------------------------|
D|-----------------------------------------------------------|
G|-----------------------------------------------------------|
C|-----------------------------------------------------------|

JS solo during TM 2 last chords
D|------------------------------------------------------------------------------------------|
C|--11\12--10--12--12\14--12--10--12--10--7--10--7--5—--7/8\7--5--7/8\7--7~-----------------|
G|---------------------------------------------------------------------------5--7--8--7--8--|
D|------------------------------------------------------------------------------------------|
G|------------------------------------------------------------------------------------------|
C|------------------------------------------------------------------------------------------|

04:51
TM (x12) (x12) (x12) (x12)
D|--12----7--|--5----7--------------|
C|--14----9--|--7----9--------------|
G|--12----7--|--5----7--------------|
D|--13----8--|--6----8--------------|
G|--12----7--|--5----7--------------|
C|--12----7--|--5----7--------------|

JS solo during TM 2 first chords
D|----------------------------10/8/10--10--12--12/13--12~--13/15--13--15--|
C|--5--3--5--7--7--7/8--7--8----------------------------------------------|
G|------------------------------------------------------------------------|
D|------------------------------------------------------------------------|
G|------------------------------------------------------------------------|
C|------------------------------------------------------------------------|

JS solo during TM 2 last chords
D|--17--15/17--15/17--15/13/15--15/17/15--13--15--15/17/15--13--15/17--17--17/18/17--15--17~--|
C|--------------------------------------------------------------------------------------------|
G|--------------------------------------------------------------------------------------------|
D|--------------------------------------------------------------------------------------------|
G|--------------------------------------------------------------------------------------------|
C|--------------------------------------------------------------------------------------------|

05:07
TM (x12) (x12) (x12) (x12)
D|--12----7--|--5----7--------------|
C|--14----9--|--7----9--------------|
G|--12----7--|--5----7--------------|
D|--13----8--|--6----8--------------|
G|--12----7--|--5----7--------------|
C|--12----7--|--5----7--------------|

JS solo during TM 2 first chords
D|-------------------------------------------------------------------------------|
C|--15--14--12--14/12--10--12--12/14--14\12--10--7--10~--7--7--5--7~--3/5--5--3--|
G|-------------------------------------------------------------------------------|
D|-------------------------------------------------------------------------------|
G|-------------------------------------------------------------------------------|
C|-------------------------------------------------------------------------------|

JS solo during TM 2 last chords
D|--------------------------------------------------------------------------|
C|--3/2--3--3/5\3--2--3/5\3--2--0--2/3\2--0--2--2/3--2~--5/7--5--3--5--7~---|
G|--------------------------------------------------------------------------|
D|--------------------------------------------------------------------------|
G|--------------------------------------------------------------------------|
C|--------------------------------------------------------------------------|

05:23
TM (x12) (x12) (x12) (x12)
D|--12----7--|--5----7--------------|
C|--14----9--|--7----9--------------|
G|--12----7--|--5----7--------------|
D|--13----8--|--6----8--------------|
G|--12----7--|--5----7--------------|
C|--12----7--|--5----7--------------|

JS solo during TM 2 first chords
D|-------------------------------------------------|
C|--5/7--7--7--5--3--0--3--5--3--2--2--------------|
G|-------------------------------------3--5--3--5--|
D|-------------------------------------------------|
G|-------------------------------------------------|
C|-------------------------------------------------|

JS solo during TM 2 last chords
D|------------------------------------------------------------------------------------|
C|------------------------------------------------------------------------------------|
G|--5/7\5--3--5--5--5/7--5~--3--5--5/7\5--3--5--5/7--7--8--7--8--10--8--10--10/12\10--|
D|------------------------------------------------------------------------------------|
G|------------------------------------------------------------------------------------|
C|------------------------------------------------------------------------------------|

05:38
[Riff L]
TM 
D|--------5--|
C|--------0--|
G|-----5--5--|
D|-----5--5--|strum these chords with heavy distortion
G|--0--------|
C|--0--------|

JS strums behind the bridge

repeat 11 times

06:23
[Riff M]
TM 
D|--------5--|
C|--------0--|
G|-----5--5--|
D|-----5--5--|strum rapidly the last chord with distortion
G|--0--------|
C|--0--------|

JS
D|-----------17--|
C|-----------0---|
G|-----------17--|strum rapidly with distortion
D|-----------17--|along with TM last chord
G|-----------0---|
C|-----------0---|
repeat 11 times

07:01
[Riff N]
TM 
D|--5--|
C|--0--|
G|--5--|
D|--5--|strum rapidly this chord with distortion
G|-----|
C|-----|

JS
D|--17--|
C|--0---|
G|--17--|strum rapidly this chord with overdrive
D|--17--|
G|------|
C|------|

This bass line by Deb Googe is heard as from 07:31, on top of the above chords

   (x12) (x12) (x12) (x12)
C|--0-----2-----5-----0--|

07:46
[Riff O]
TM 
    (x12) (x12) (x12)   
D|--12----14----10--|
C|--0-----0-----0---|
G|--12----14----10--|
D|--0-----0-----0---|
G|--12----14----10--|
C|--0-----0-----0---|
Vocals start here “She is the future – and a prophetess” 
repeat 9 times

JS 
    (x12) (x12) (x12)  at 09:01 (x12) (x12)
D|------------------|----------------------------------------------------------------------------|
C|--7-----9---------|-----------7-----9----------------------------------------------------------|
G|--------------10--|-----------------------10--7------7--10--7------7--10--7------7--10--7------|
D|------------------|------------------------------10------------10------------10------------10--|
G|------------------|----------------------------------------------------------------------------|
C|------------------|----------------------------------------------------------------------------|

until “Oh, my turpentine” where TM plays 

 TM   (x12)   
D|--12--|
C|--0---|
G|--12--|
D|--0---|
G|--12--|
C|--0---|

09:26
[Riff P]
TM 
D|------------------------------|
C|------------------------------|
G|------------------------------|
D|--9--12--9--12--9--12--9--12--|
G|------------------------------|
C|------------------------------|

JS   
D|------------------------------|
C|------------------------------|
G|------7------7------7------7--|
D|--10-----10-----10-----10-----|
G|------------------------------|
C|------------------------------|

09:41
[Riff Q]
TM    
D|--------------------------------------------------|
C|------------------------------------------12--10--|
G|----------10--------------10----------------------|
D|--12--12------12--10--12------12--10--12----------|
G|--------------------------------------------------|
C|--------------------------------------------------|

 JS   
D|--------------------------------------10--8--|
C|--7--7--10--7------7--10--7------7-----------|
G|---------------10------------10--------------|
D|---------------------------------------------|
G|---------------------------------------------|
C|---------------------------------------------|

10:11
[Riff R]
TM 
D|------------------------------------------------------|
C|----------------------------------------------12--10--|
G|--12--10------10--12--10------10--12--10--------------|
D|----------12--------------12--------------12----------|
G|------------------------------------------------------|
C|------------------------------------------------------|

JS 
D|--------------------------------------------------|
C|--------------------------------------------------|
G|------15--12--------------------------15--12------|
D|--12----------15--12--15--12--15--12----------15--|
G|--------------------------------------------------|
C|--------------------------------------------------|

10:26
[Riff S]
TM 
D|------------------------------------------------------|
C|----------------------------------------------12--10--|
G|--12--10------10--12--10------10--12--10--------------|
D|----------12--------------12--------------12----------|
G|------------------------------------------------------|
C|------------------------------------------------------|

JS 
D|------------------------------|
C|--------------------------14--|
G|------15--12------12--15------|
D|--12----------15--------------|
G|------------------------------|
C|------------------------------|

10:30
[Riff T]
TM 
D|------------------------------------------------------|
C|----------------------------------------------12--10--|
G|--12--10------10--12--10------10--12--10--------------|
D|----------12--------------12--------------12----------|
G|------------------------------------------------------|
C|------------------------------------------------------|

JS 
D|------------------------------|
C|----------12--15--14--12--14--|
G|--12--15----------------------|
D|------------------------------|
G|------------------------------|
C|------------------------------|

10:47
[Riff U]
TM 
D|------------------------------------------------------|
C|----------------------------------------------12--10--|
G|--12--10------10--12--10------10--12--10--------------|
D|----------12--------------12--------------12----------|
G|------------------------------------------------------|
C|------------------------------------------------------|

JS 
D|--------------------------|
C|----------12--15--14--14--|
G|--12--15------------------|
D|--------------------------|
G|--------------------------|
C|--------------------------|

10:50
[Riff V]
TM 
D|------------------------------------------------------|
C|----------------------------------------------12--10--|
G|--12--10------10--12--10------10--12--10--------------|
D|----------12--------------12--------------12----------|
G|------------------------------------------------------|
C|------------------------------------------------------|

JS 
D|----------------------|
C|----------12--15--14--|
G|--12--15--------------|
D|----------------------|
G|----------------------|
C|----------------------|

11:03
[Riff W]
TM 
D|--12--12--0--0--|
C|----------------|
G|----------------|
D|----------------|
G|----------------|
C|----------------|

JS 
D|----------------------|
C|----------12--15--14--|
G|--12--15--------------|
D|----------------------|
G|----------------------|
C|----------------------|

11:11
[Riff X]
TM 
D|--0--------0--------|
C|-----0--------0-----|
G|-----------------0--|
D|--------------------|
G|--------0-----------|
C|--------------------|

JS 
D|----------------------|
C|----------12--15------|
G|--12--15--------------|
D|------------------10--|
G|----------------------|
C|----------------------|

11:15
[Riff Y]
TM 
D|--0--------0--------|--0--------0--------|
C|-----0--------0-----|-----0--------0-----|
G|-----------------0--|-----------------0--|
D|--------------------|--------------------|
G|--------0-----------|--------0-----------|
C|--------------------|--------------------|

JS 
D|------------------------------|--------------------------|--------------------------12--10--10------|
C|------10----------------------|--10--10------------------|----------------------------------12------|
G|--12------12--10--------------|----------12----------12--|------10----------12--10--------------12--|
D|------------------12--10--12--|--------------12--10------|--10------12--10--------------------------|
G|------------------------------|--------------------------|------------------------------------------|
C|------------------------------|--------------------------|------------------------------------------|

11:19
[Riff Z]
TM 
D|--0--------0--------|--0--------0--------|
C|-----0--------0-----|-----0--------0-----|
G|-----------------0--|-----------------0--|
D|--------------------|--------------------|
G|--------0-----------|--------0-----------|
C|--------------------|--------------------|

JS 
D|--------------------------12--10--10----------|
C|----------------------------------12----------|
G|------10----------12--10--------------12--12--|
D|--10------12--10------------------------------|
G|----------------------------------------------|
C|----------------------------------------------|

11:32
JS picks this sequence of notes behind the bridge: C G C G C G F G C

*********************************** 

| / Slide-up 
| \ Slide-down 
| ~ Vibrato 

***********************************
Suggest correction
Creating personal tab
Creating personal tab
You can edit any tab online and save it as your Personal.

You can edit, replace or remove any tab part or add personal notes – all changes will be seen only by you.

Personal tabs can be accessed anytime from any device, even offline.
Learn more »
Give kudos to tab author, rate the tab!
1 2 3 4 5
comments
print report bad tab
guest
You may want to rate the tab now too:
select rating
Wanna post a correction for this tab? Suggest correction