Oops, an error
Loading. Please wait.

Mina Loy Tab

22 views 1 this week
no commentswrite comment
1 2 3 4 5
3 more votes to show rating
add to favorites
launch autoscroll
font size
0
reset
how to read this tab
guitar tuner
Autoscroll
slow
fast
+/-
esc
set tempo
stop
Help us to improve Ultimate-Guitar.com Take our survey!
×
Author
Difficulty
Tuning
novice
D G C F A D
Thurston Moore - Mina Loy
This song is in an open tuning (DAF#ADD) and is played on a 12-string guitar on the recording.
This is how I play this song, it might not be exactly how Thurston plays it.
Plus when it's performed live there's 2 guitars.
I tabbed the basic melody, and you can play the open tuning for the bass and droning.

[Intro]

D |----------------0-0-0-0-0-0-0-0---|
A |----------------5-5-3-3-0-0-4-4---|
F#|----4-4-3-3-0-0-0-0-0-0-0-0-0-0---|
A |----0-0-0-0-4-4-------------------|
D |-0-3------------------------------|
D |-0-0------------------------------|(x2)

D |----------------------------------|
A |----------------------------------| 
F#|-----4-4-3-3-0-0-0-0-3-3-5-5-3-3--|
A |-----0-0-0-0-4-4-0-0-0-0-0-0-0-0--|
D |-0-3------------------------------|
D |-0-0------------------------------|

D |----------------0-0-0-0-0-0-0-0---|
A |----------------5-5-3-3-0-0-4-4---| 
F#|----4-4-3-3-0-0-0-0-0-0-0-0-0-0---|
A |----0-0-0-0-4-4-------------------|
D |-0-3------------------------------|
D |-0-0------------------------------|

D |----------------------------------|
A |----------------------------------| 
F#|-----4-4-3-3-0-0-0-0-3-3-5-5-3-3--|
A |-----0-0-0-0-4-4-0-0-0-0-0-0-0-0--|
D |-0-3------------------------------|
D |-0-0------------------------------|

D |----------------------------------|
A |----------------------------------| 
F#|-0-0-0-0-0-0-0-0-0-0-0-0-0-0-0-0--|
A |-0-0-5-5-4-4-4-4-4-4-4-4-4-4-4-4--|
D |----------------------------------|
D |----------------------------------|


[Bridge 1]

D |-7-7-9-9-12-12-6-6-7-7-7-7-7-7-7-7-|
A |-0-0-0-0-0--0--0-0-0-0-0-0-0-0-0-0-| 
F#|-----------------------------------|
A |-----------------------------------|
D |-----------------------------------|
D |-----------------------------------|

D |-0-0-0-0-0--0--0-0-0-0-0-0--------|
A |-8-8-9-9-11-11-9-9-8-8-8-8--------| 
F#|----------------------------------|
A |----------------------------------|
D |----------------------------------|
D |----------------------------------|

[Bridge 2]
(String Part)

D |----------------------------------|
A |-----------------5-5-6-6----------|
F#|----------------------------------|
A |-0-0-0-0-0-0-0-0-0-0-0-0----------|
D |-6-6-6-6-6-6-6-6-6-6-6-6----------|
D |-0-0-0-0-0-0-0-0-0-0-0-0----------|(x4)


[Pre-Verse]

D |-0-0-0-0-0-0-0-0-0-0-0-0-0-0------|
A |-0-0-0-0-0-0-0-0-0-0-0-0-0-0------| 
F#|-3-3-3-3-3-3-3-3-3-3-3-3-3-3------|
A |-0-0-0-0-0-0-0-0-0-0-0-0-0-0------|
D |-3-3-3-3-3-3-3-3-3-3-3-3-3-3------|
D |----------------------------------|

D |-3-3-2-2-0-0-2-2-3-3-2-2-0-0------|
A |-0-0-0-0-0-0-0-0-0-0-0-0-0-0------| 
F#|-3-3-3-3-3-3-3-3-3-3-3-3-3-3------|
A |----------------------------------|
D |----------------------------------|
D |----------------------------------|

D |-3-3-2-2-0-0-0-0-0-0-0-0-0-0------|
A |-0-0-0-0-0-0-3-3-2-2-0-0-0-0------| 
F#|-3-3-3-3-3-3-3-3-3-3-3-3-3-3------|
A |----------------------------------|
D |----------------------------------|
D |----------------------------------|

D |-3-3-2-2-0-0-2-2-3-3-2-2-0-0------|
A |-0-0-0-0-0-0-0-0-0-0-0-0-0-0------| 
F#|-3-3-3-3-3-3-3-3-3-3-3-3-3-3------|
A |----------------------------------|
D |----------------------------------|
D |----------------------------------|

D |-0-0-0-0-0-0-0-2-2-0-0-0-0-0------|
A |-3-3-2-2-3-3-3-0-0-3-3-2-2-0------| 
F#|-3-3-3-3-3-3-3-3-3-3-3-3-3-3------|
A |----------------------------------|
D |----------------------------------|
D |----------------------------------|


[Verse]

Found a diamond in the gutter
D |-3-3-2-2-0-0-2-2-3-3-2-2-0-0------|
A |-0-0-0-0-0-0-0-0-0-0-0-0-0-0------| 
F#|-3-3-3-3-3-3-3-3-3-3-3-3-3-3------|
A |----------------------------------|
D |----------------------------------|
D |----------------------------------|

On an early morning freeze
D |-3-3-2-2-0-0-0-0-0-0-0-0-0-0------|
A |-0-0-0-0-0-0-3-3-2-2-0-0-0-0------| 
F#|-3-3-3-3-3-3-3-3-3-3-3-3-3-3------|
A |----------------------------------|
D |----------------------------------|
D |----------------------------------|

In your mouth it turns to water
D |-3-3-2-2-0-0-2-2-3-3-2-2-0-0------|
A |-0-0-0-0-0-0-0-0-0-0-0-0-0-0------| 
F#|-3-3-3-3-3-3-3-3-3-3-3-3-3-3------|
A |----------------------------------|
D |----------------------------------|
D |----------------------------------|

Onyx eyes swallow me
D |-0-0-0-0-0-0-2-2-0-0-0-0-0-0------|
A |-3-3-2-2-3-3-0-0-3-3-2-2-0-0------| 
F#|-3-3-3-3-3-3-3-3-3-3-3-3-3-3------|
A |----------------------------------|
D |----------------------------------|
D |----------------------------------|

I don't care what it takes
D |-0-0-2-2-2-0-0-0-0-0-0----|
A |-2-3-0-0-0-3-2-0-0-0-0----| 
F#|-3-3-3-3-3-3-3-3-3-3-3----|
A |--------------------------|
D |--------------------------|
D |--------------------------|

All he wants is you to love him
D |-0-0-2-3-2-0-0-0----------|
A |-2-3-0-0-0-3-2-0----------| 
F#|-3-3-3-3-3-3-3-3----------|
A |--------------------------|
D |--------------------------|
D |--------------------------|

Without shame, without shame...
D |-0-0-0-0-0-0-0-0-2--------|
A |-3-2-0-0-0-0-2-3-0--------|
F#|-3-3-3-3-3-3-3-3-3--------| 
A |--------------------------|
D |--------------------------|
D |--------------------------|
Suggest correction
Give kudos to tab author, rate the tab!
1 2 3 4 5
comments
print report bad tab
guest
You may want to rate the tab now too:
select rating
Wanna post a correction for this tab? Suggest correction