Oops, an error
Loading. Please wait.

Ono Soul Tab

2,290 views 1 this week
4 commentsread comments
1 2 3 4 5
x 4
add to favorites
launch autoscroll
font size
0
reset
how to read this tab
guitar tuner
×
Best way to learn
"Ono Soul"
Autoscroll
slow
fast
+/-
esc
set tempo
stop
#----------------------------------PLEASE NOTE---------------------------------#
#This file is the author's own work and represents their interpretation of the #
#song. You may only use this file for private study, scholarship, or research. #
#------------------------------------------------------------------------------##
Ono Soul
by: thurston moore
from:mike abraham(bobbyblu@star.net)
off of the "physic hearts" album
tabbed by mike abraham

tidbit:
the original thurston moore band was going to be called "male slut" for this record.

main riff:


|----------------------------------------------------|
|----------------------------------------------------|
|----2---2-------3------2---2------------------------|
|--0---0---0-1-1------0---0---0---1-1--1-1-3---------|
|--------------------------------------3-------------|
|----------------------------------------------------|

|----------------------------------------------------|
|----------------------------------------------------|
|----2---2-------3------2---2------------------------|
|--0---0---0-1-1------0---0---0---1-1--1-1-----------|
|--------------------------------------3---- 3-------|
|----------------------------------------------------|

and then the chorus(strumming not shown):


F       Dm     F    Ebm                        CHORDS:
            																								  F= x03211
ono soul.......ono soul.........                        Dm= xx0231
																														  Ebm= xx4342

F       Dm     F    Ebm

ono soul.......ono soul.........
Suggest correction
comments
print report bad tab
4 comments total. Showing first comments.
0 reply
Pitoudoherty 10 Sep 06, 2009 02:12 AM

Chors for the chorus seems wrong ...

0 reply
Just2Rusty 20 Nov 11, 2009 01:41 AM

|----------------------------------------------------|
|----------------------------------------------------|
|----2---2-------3------2---2------------------------|
|--0---0---0-1-1------0---0---0---1-1------1-1-3-----|
|--------------------------------------3-3-----------|
|----------------------------------------------------|

I play it like that. They're pretty much the same.

0 reply
BeenaSon777 10 Nov 18, 2009 06:21 AM

I'm not sure about the chorus either, could be right, I didn't play along with the chorus..... but everything else is exact.

guest
You may want to rate the tab now too:
select rating
Wanna post a correction for this tab? Suggest correction