Oops, an error
Loading. Please wait.

Speak To The Wild tab

version 2
version 2

Whole song

982 views 12 this week
1 commentread comment
1 2 3 4 5
x 3
add to favorites
×
Save as Personal and add changes to this tab that will be seen only by you. Learn more ›
×
You can save this tab as Personal to edit and correct it or add notes. All changes will be seen only by you. Learn more »
launch autoscroll
font size
0
reset
how to read this tab
guitar tuner
edit
Autoscroll
slow
fast
+/-
esc
set tempo
stop
-------------------------------------------------------------------------------
                             SPEAK TO THE WILD - Thurston Moore
-------------------------------------------------------------------------------
Tabbed by: Shaka_SY
E-mail: 

Tuning: CGDGCD

This is Thurston's part, but James' is similar:



Intro (harmonics)
D|-*12---------------------|-*7----------------|
C|-----*12-----------------|----*7-------------|
G|---------*12-------------|-------*7----------|
D|-------------*12---------|----------*7-------|
G|-----------------*12-----|-------------*7----|
C|---------------------*12-|----------------*7-| (repeat 4 times)


Verse
D|------------------|------------------|------------------|------------------|
C|------5-5-5-5-5-5-|------5-5-5-5-5-5-|------5-5-5-5-5-5-|------5-5-5-5-5-5-|
G|------0-0-0-0-0-0-|------0-0-0-0-0-0-|------0-0-0-0-0-0-|------0-0-0-0-0-0-|
D|-0----0-0-0-0-0-0-|-0----0-0-0-0-0-0-|-0----0-0-0-0-0-0-|-0----0-0-0-0-0-0-|
G|-0----0-0-0-0-0-0-|-0----0-0-0-0-0-0-|-0----0-0-0-0-0-0-|-0----0-0-0-0-0-0-|
C|------------------|------------------|------------------|------------------|

D|---------0-------|---------0-------|
C|-----0-----0-----|-----0-----0-----|
G|-------0-----0---|-------0-----0---|
D|---8-----------8-|---8-----------8-|
G|-8---------------|-8---------------|
C|-----------------|-----------------|
                      patern may vary

Play first part of the verse during :
Speak to the wild
Reach for the wire
Protect your child
From empty empire

Play second part during :
The king has come to join/meet the band



Chorus ("don't let the dark...")
D|--------------------|--------------|---------------|---------------|
C|--------------------|--------------|---------------|---------------|
G|--------------------|--------------|---------------|---------------|
D|--------------------|--------------|---------------|---------------|
G|-10--10--10-10-10-10|\5-5-5-5-5-5-5|\3--3--3-3-3-3-|-3-3-3-3/5-5-5/|
C|-10--10--10-10-10-10|\5-5-5-5-5-5-5|\3--3--3-3-3-3-|-3-3-3-3/5-5-5/|

D|--------------------|--------------|----------0---|---------0-0-0-|
C|--------------------|--------------|----2-2-2-0---|---2-2-2-0-0-0-|
G|--------------------|--------------|----0-0-0-0---|---0-0-0-0-0-0-|
D|--------------------|--------------|----0-0-0-0---|---0-0-0-0-0-0-|
G|/10--10--10-10-10-10|\5-5-5-5-5-5-5|\3--3-3-3-3-3-|---3-3-3-3-3-3-|
C|/10--10--10-10-10-10|\5-5-5-5-5-5-5|\3--3-3-3-3-3-|---3-3-3-3-3-3-|

D|----------0---|---------0-0-0-|
C|----2-2-2-0---|---2-2-2-0-0-0-|
G|----0-0-0-0---|---0-0-0-0-0-0-|
D|----0-0-0-0---|---0-0-0-0-0-0-|
G|-3--3-3-3-3-3-|---3-3-3-3-3-3-|
C|-3--3-3-3-3-3-|---3-3-3-3-3-3-|


Middle part
D|-------------------------------------|-8--8--8--8--8--8--8--8--|
C|-2-2-2-------------------------------|-10-10-10-10-10-10-10-10-|
G|-0-0-0h3p0-3-3-3---------------------|-10-10-10-10-10-10-10-10-|
D|-----------0-0-0h5p0-5-5-5-----------|-------------------------|
G|---------------------0-0-0h7p0-7-7-7-|-------------------------|
C|-------------------------------------|-------------------------|

D|----------------------------------|-8--8--8--8--8--8--8--8--|
C|----------------------------------|-10-10-10-10-10-10-10-10-|
G|-5-5-5-5-5-5-5-5//7-7-7-7-7-7-7-7-|-0--0--0--0--0--0--0--0--|
D|-0-0-0-0-0-0-0-0--0-0-0-0-0-0-0-0-|-------------------------|
G|-0-0-0-0-0-0-0-0--0-0-0-0-0-0-0-0-|-------------------------|
C|----------------------------------|-------------------------|

D|-------------------------------------------------|-12-12-12-12-12-12-12-12-|
C|-------------------------------------------------|-14-14-14-14-14-14-14-14-|
G|-10-10-10-10-10-10-10-10-12-12-12-12-12-12-12-12-|-0--0--0--0--0--0--0--0--|
D|-0--0--0--0--0--0--0--0--0--0--0--0--0--0--0--0--|-------------------------|
G|-0--0--0--0--0--0--0--0--0--0--0--0--0--0--0--0--|-------------------------|
C|-------------------------------------------------|-------------------------|

D|------------------------------------------------------------------------|
C|-14-14-14-14-14---------------------------------------------------------|
G|----------------15-15-15-15---------------------------------------------|
D|----------------------------17-17-17-17-15-15-15------------------------|
G|-------------------------------------------------17-17-17-17-17-15-15-15|
C|------------------------------------------------------------------------|

D|-------------------------------------------------|
C|-------------------------------------------------|
G|-------------------------------------------------|
D|-------------------------------------------------|
G|-12-12-12-12-12-15-15-15-15-17-17-17-17-19-19-19-|
C|-------------------------------------------------|

D|----------|
C|-0--------|
G|-0--------| play this chord
D|17--------| for 8 beats
G|19--------|
C|----------|


D|------------------------------------------------------------------------|
C|-14-14-14-14-14---------------------------------------------------------|
G|----------------15-15-15-15---------------------------------------------|
D|----------------------------17-17-17-17-15-15-15------------------------|
G|-------------------------------------------------17-17-17-17-17-15-15-15|
C|------------------------------------------------------------------------|

D|-------------------------------------------------------------------------|
C|-------------------------------------------------------------------------|
G|-------------------------------------------------------------------------|
D|-------------------------------------------------------------------------|
G|-12-12-12-12-12-10-10-10-10-12-12-12-12-15-15-15-15-17-17-17-17-19-19-19-|
C|-------------------------------------------------------------------------|

D|----------|----------|--0-------|
C|----------|--0-------|-17-------| play each
G|--0-------|-17-------|-19-------| of those chords
D|-17-------|-19-------|----------| for 8 beats
G|-19-------|----------|----------|
C|----------|----------|----------|

D|------------------------|-17-19-------------------|
C|-------------------17-19|-------17-19-------------|
G|-------------17-19------|-------------17-19-------|
D|-------17-19------------|-------------------17-19-|
G|-17-19------------------|-------------------------|
C|------------------------|-------------------------| (repeat 4x)

D|--------0-17-19--0-------|--------0-17-etc-|
C|-----0-17-19-17-19--0----|-----0-17-19-etc-| hold each
G|--0-17-19--0--0-17-19--0-|--0-17-19--0-----| of those chords
D|-17-19--0--------0-17-19-|-17-19--0--------| for 8 beats again
G|-19-------------------17-|-19--------------| (except last one for 32)
C|-------------------------|-----------------| 

Then come back to the harmonics from the intro

Then play verse, chorus

End on :

D|--------|
C|-2------|
G|-3------|
D|-0------|
G|-0------|
C|--------|


************************************

| /   slide up
| \   slide down
| h   hammer-on
| p   pull-off
| ~   vibrato
| *   harmonic
| x   Mute note
| b   Bend
| pb  Pre-bend
| br  Bend release
| pbr Pre-bend release
| brb Bend release bend

************************************

            
            
Suggest correction
Creating personal tab
Creating personal tab
You can edit any tab online and save it as your Personal.

You can edit, replace or remove any tab part or add personal notes – all changes will be seen only by you.

Personal tabs can be accessed anytime from any device, even offline.
Learn more »
Give kudos to tab author, rate the tab!
1 2 3 4 5
comments
print report bad tab
1 comment total.
0 reply
SuperDJD 10 Apr 09, 2017 04:29 PM

Good tab!!!!!!!!!

guest
You may want to rate the tab now too:
select rating
Wanna post a correction for this tab? Suggest correction