Oops, an error
Loading. Please wait.

Turn On tab

version 1
version 1

Whole song

  • This tab is based off the studio recorded version ... Show more
  • Tabbed from a live version (Live on Soundcheck) - ... Show more
160 views 1 this week
no commentswrite comment
1 2 3 4 5
2 more votes to show rating
add to favorites
×
Save as Personal and add changes to this tab that will be seen only by you. Learn more ›
×
You can save this tab as Personal to edit and correct it or add notes. All changes will be seen only by you. Learn more »
launch autoscroll
font size
0
reset
how to read this tab
guitar tuner
edit
Autoscroll
slow
fast
+/-
esc
set tempo
stop
About this tab version
This tab is based off the studio recorded version (Song 3 of the album "Rock n Roll Consciousness" by Thurston Moore). Was this info helpful? Yes No
TURN ON - Thurston Moore group

Tabbed by sonic_frog
E-mail: massilliansonicfrog@gmail.com

Tuning: CGDGCD

[Intro]

 D|----------------------------------------------------------------|
 C|-----------12--------------12--------------12--------------12---|
 G|-------14------14------14------14------14------14------14-------|
 D|---15--------------15--------------15--------------15-----------|
 G|----------------------------------------------------------------|
 C|----------------------------------------------------------------|

 D|----------------------------------------------------------------|
 C|----------------------------------------------------------------|
 G|-----------12--------------12--------------12--------------12---|
 D|-------13------13------13------13------13------13------13-------|
 G|---12--------------12--------------12--------------12-----------|
 C|----------------------------------------------------------------|

 D|----------------------------------------------------------------|
 C|-----------0---------------0---------------0---------------0----|
 G|-------10------10------10------10------10------10------10-------|
 D|---11--------------11--------------11--------------11-----------|
 G|----------------------------------------------------------------|
 C|----------------------------------------------------------------|

 D|----------------------------------------------------------------|
 C|---------------0---------------0---------------0----------------|
 G|-----------0---------------0---------------0---------------0----|
 D|-------10--------------10--------------10--------------10-------|
 G|---9---------------9---------------9---------------9------------|
 C|----------------------------------------------------------------|

 D|-----------8---------------8---------------8----------------8---|
 C|----------------------------------------------------------------|
 G|-------7-------7-------7-------7-------7-------7-------7--------|
 D|---8---------------8---------------8---------------8------------|
 G|----------------------------------------------------------------|
 C|----------------------------------------------------------------|

 D|-----------6---------------6---------------6----------------6---|
 C|----------------------------------------------------------------|
 G|----------------------------------------------------------------|
 D|-------6-------6-------6-------6--------6------6-------6--------|
 G|---5---------------5---------------5---------------5------------|
 C|----------------------------------------------------------------|

 D|-------------------0-------------------------------0------------|
 C|-----------0-----------0----------------0-------------------0---|
 G|-------4-------4-----------4-------4-----------4-------4--------|
 D|---5---------------------------5--------------------------------|repeat the intro
 G|----------------------------------------------------------------|4x
 C|----------------------------------------------------------------|


[Riff A]
02:03
 D|---------------------------------13---8---11---|
 C|---0----0----0----0----0----0----15---10--13---|
 G|---9----12---17---19---14---9----0----0---0----|
 D|---10---13---18---20---15---10---13---8---11---|
 G|-----------------------------------------------|
 C|-----------------------------------------------|


[Riff B]
02:41
 D|---10---8---10---12---10---8---|
 C|---12---10--12---14---12---10--|
 G|---0----0---0----0----0----0---|repeat 2x with a
 D|---10---8---10---12---10---8---|fast strumming pattern on each chord
 G|-------------------------------|vocals start at the second repeat
 C|-------------------------------|
"I come believing in your light - A sweet receiver in your mind"


[Riff C] (“I turn it up all the way” till “Turn on your god headlight”)
03:12
 D|---6---8---10--8--|--6---8---10--11--|--6---8---10--8--|
 C|---5---7---9---7--|--5---7---9---10--|--5---7---9---7--|
 G|---5---7---9---7--|--5---7---9---10--|--5---7---9---7--|
 D|---6---8---10--8--|--6---8---10--11--|--6---8---10--8--|
 G|---5---7---9---7--|--5---7---9---10--|--5---7---9---7--|
 C|---5---7---9---7--|--5---7---9---10--|--5---7---9---7--|

 D|--11--11--10--10--|--11-13--11--10--10--|
 C|--10--10--9---9---|--10-10--10--9---9---|
 G|--10--10--9---9---|--10-10--10--9---9---|
 D|--11--11--10--10--|--11-11--11--10--10--|
 G|--10--10--9---9---|--10-10--10--9---9---|
 C|--10--10--9---10--|--10-10--10--9---10--|
Repeat 2 x the two last sequences


[Riff D]
03:48
 D|---12---12---12---12---|
 C|---12---12---12---12---|
 G|---12---12---12---12---|
 D|---12---12---12---12---|Repeat 16 x
 G|---12---12---12---12---|
 C|---12---12---12---12---|


[Riff E]
04:02
 D|---14---15---13---12---12--10--10--9---|
 C|---12---12---10---10---8---8---7---7---|
 G|---12---12---10---10---8---8---7---7---|
 D|---14---14---12---12---10--10--9---9---|Repeat 2x
 G|---12---12---10---10---8---8---7---7---|
 C|---12---12---10---10---8---8---7---7---|


[Riff F]
04:30
 D|---14---15---18---17---12--10--20--21---|
 C|---12---12---15---15---8---8------------|
 G|---12---12---15---15---8---8------------|
 D|---14---14---17---17---10--10--20--21---|
 G|---12---12---15---15---8---8------------|
 C|---12---12---15---15---8---8------------|


[Riff E]
04:45
 D|---14---15---13---12---12--10--10--9---|
 C|---12---12---10---10---8---8---7---7---|
 G|---12---12---10---10---8---8---7---7---|
 D|---14---14---12---12---10--10--9---9---|
 G|---12---12---10---10---8---8---7---7---|
 C|---12---12---10---10---8---8---7---7---|


[Riff G]
04:59
 D|------------|
 C|------------|
 G|------------|
 D|---5---5-5--|Repeat 2x
 G|---5---5-5--|with heavy distortion
 C|---5---5-5--|


[Riff H]
05:06
 D|-------------------------------------------------|
 C|-------------------------------------------------|
 G|---------------------------14---15-15---14-------|
 D|-----------------14---15---------------------15--|
 G|-------14---15-----------------------------------|
 C|-------------------------------------------------|

 D|-------------------------------------------------|
 C|-------------------------------------------------|
 G|---------------------------14---17-17---19---17--|
 D|-----------------14---15-------------------------|
 G|-------14---15-----------------------------------|
 C|-------------------------------------------------|Repeat 2x


[Riff G]
05:20
 D|------------|
 C|------------|
 G|------------|
 D|---5---5-5--|Repeat 2x
 G|---5---5-5--|with heavy distortion
 C|---5---5-5--|


[Riff H]
05:28
 D|-------------------------------------------------|
 C|-------------------------------------------------|
 G|---------------------------14---15-15---14-------|
 D|-----------------14---15---------------------15--|
 G|-------14---15-----------------------------------|
 C|-------------------------------------------------|

 D|-------------------------------------------------|
 C|-------------------------------------------------|
 G|---------------------------14---17-17---19---17--|
 D|-----------------14---15-------------------------|
 G|-------14---15-----------------------------------|
 C|-------------------------------------------------|Repeat 2x


[Riff I]
05:41
 D|---3---3---|--------12--12----------12------12-----------|
 C|---0---0---|----------------12---------12-------12-------|
 G|---0---0---|--------------------12------------------12---|
 D|---3---3---|---------------------------------------------|Repeat 4 x
 G|-----------|---------------------------------------------|the last sequence
 C|-----------|---0-----------------------------------------|


[Riff J]
06:04
 D|-----------12------------------12-------|
 C|-------12------12----------12------12---|
 G|---12--------------12--12---------------|
 D|----------------------------------------|Thurston sequence
 G|----------------------------------------|along with James Sedwards solo
 C|----------------------------------------|


[Riff K] James Sedwards Solo with well sustained overdrive
 06:11
 D|---------------------------------|------------------------------------------|
 C|---10------9--10--12--9---7--7---|---10------9--10--12—9--5/7--5/7--5\7/5---|
 G|---------------------------------|------------------------------------------|
 D|---------------------------------|------------------------------------------|
 G|---------------------------------|------------------------------------------|
 C|---------------------------------|------------------------------------------|

 06:25
 D|---------------------------------------------------|
 C|---10------9--10--12--10--9--10--9--7--5--7/9--7---|
 G|---------------------------------------------------|
 D|---------------------------------------------------|
 G|---------------------------------------------------|
 C|---------------------------------------------------|

06:30
 D|-----------------------------------------------------------------------------------|
 C|---5--4--5--4--2--4----5--4--5--4--2--4----2--0--2----0----------------------------|
 G|---------------------------------------------------------3--2----3--2--0----2--0---|
 D|-----------------------------------------------------------------------------------|
 G|-----------------------------------------------------------------------------------|
 C|-----------------------------------------------------------------------------------|

06:38
 D|----------------------------------------------------------|
 C|----------------------------------------------------------|
 G|---0--2--3----2--3--5----3--5--7----5--7--9----7--9--10---|
 D|----------------------------------------------------------|
 G|----------------------------------------------------------|
 C|----------------------------------------------------------|

06:41
 D|-------------------------------------------------------------|
 C|---9------9----10--9--10----12--10--12----10--12/14--12--7---|
 G|------10-----------------------------------------------------|
 D|-------------------------------------------------------------|
 G|-------------------------------------------------------------|
 C|-------------------------------------------------------------|

06:48
 D|---------------------------------------------------------7-----7--10--10---|
 C|---10--9--10----9--7--9----7--5--7/9--7----5--4--2--4--5----5--------------|
 G|---------------------------------------------------------------------------|
 D|---------------------------------------------------------------------------|
 G|---------------------------------------------------------------------------|
 C|---------------------------------------------------------------------------|


06:53
 D|-----------------------------------------------------------17/19--17/19--17/19--17/19\17--|
 C|---9--12--12/14----10--12--14----12--14--16----14--16--17---------------------------------|
 G|------------------------------------------------------------------------------------------|
 D|------------------------------------------------------------------------------------------|
 G|------------------------------------------------------------------------------------------|
 C|------------------------------------------------------------------------------------------|


07:00
 D|---15/17--14--------14------------------------------------------------|
 C|--------------12--------12--10----12--10--9----10--5--7----5--4--2----|
 G|----------------------------------------------------------------------|
 D|----------------------------------------------------------------------|
 G|----------------------------------------------------------------------|
 C|----------------------------------------------------------------------|


07:03
 D|----------------------------|-----------------------------------|
 C|---4--4/5\4--2--4-----------|---------4-----5--4-----7--5--7----|
 G|---------------------5--3---|---3--5-----5--------5-------------|
 D|----------------------------|-----------------------------------|
 G|----------------------------|-----------------------------------|
 C|----------------------------|-----------------------------------|


07:09
 D|---------------------------------------------------------------------------|
 C|---5--4--5--4--0----5--4--0----2-------------------------------------------|
 G|----------------------------------5--3----5--3--2----3--2--0----2----------|
 D|-------------------------------------------------------------------5--3----|
 G|---------------------------------------------------------------------------|
 C|---------------------------------------------------------------------------|

07:13
 D|-----------------------------|
 C|-----------------------------|
 G|-----------------------------|
 D|---5--5----2/3\2/3\2/3\2~----|
 G|-----------------------------|
 C|-----------------------------|


[Riff L]
07:25
James part
 D|---12--12--12----------12--12--12-------|
 C|---14--12------12------14--12------12---|
 G|---12--12--------------12--12-----------|
 D|----------------------------------------|
 G|----------------------------------------|at unison with Thurston part at 07:51
 C|----------------------------------------|

Thurston part
 D|-------------5--7--------------5--7----|
 C|-------------7--9--------------7--9----|
 G|-------------0--0--------------0--0----|
 D|-------------5--7--------------5--7----|
 G|---------------------------------------|
 C|---------------------------------------|


[Riff M]
07:56
 D|---5---10---13---19---21---15---10---13---8----|
 C|---7---12---15---21---22---17---12---15---10---|
 G|---0---0----0----0----0----0----0----0----0----|
 D|---5---10---13---19---21---15---10---13---8----|fast strumming pattern on each chord
 G|-----------------------------------------------|
 C|-----------------------------------------------|


 D|---11--------11--------11--------11--------|
 C|---13--------13--------13--------13--------|
 G|--------0---------0---------0---------0----|
 D|--------11--------11--------11--------11---|
 G|-------------------------------------------|repeat 4 x
 C|-------------------------------------------|


[Riff B]
08:41
 D|---10---8---10---12---10---8---|
 C|---12---10--12---14---12---10--|
 G|---0----0---0----0----0----0---|repeat 2x with a
 D|---10---8---10---12---10---8---|fast strumming pattern on each chord
 G|-------------------------------|vocals restart at the second repeat
 C|-------------------------------|
"I come believing in your light - The sweet receiver in your mind"


[Riff C] (“I turn it up all the way” till “Turn on your god headlights”)
09:09
 D|---6---8---10--8--|--6---8---10--11--|--6---8---10--8--|
 C|---5---7---9---7--|--5---7---9---10--|--5---7---9---7--|
 G|---5---7---9---7--|--5---7---9---10--|--5---7---9---7--|
 D|---6---8---10--8--|--6---8---10--11--|--6---8---10--8--|
 G|---5---7---9---7--|--5---7---9---10--|--5---7---9---7--|
 C|---5---7---9---7--|--5---7---9---10--|--5---7---9---7--|

 D|--11--11--10--10--|--11-13--11--10--10--|
 C|--10--10--9---9---|--10-10--10--9---9---|
 G|--10--10--9---9---|--10-10--10--9---9---|
 D|--11--11--10--10--|--11-11--11--10--10--|
 G|--10--10--9---9---|--10-10--10--9---9---|
 C|--10--10--9---10--|--10-10--10--9---10--|
 Repeat 4 x the two last sequences


[Outro]

 D|-------|
 C|-------|
 G|-------|
 D|---5---|
 G|---5---|
 C|---5---|with heavy distortion


***********************************
| / Slide up
| \ Slide down
| ~ Vibrato
***********************************
Suggest correction
Creating personal tab
Creating personal tab
You can edit any tab online and save it as your Personal.

You can edit, replace or remove any tab part or add personal notes – all changes will be seen only by you.

Personal tabs can be accessed anytime from any device, even offline.
Learn more »
Give kudos to tab author, rate the tab!
1 2 3 4 5
comments
print report bad tab
guest
You may want to rate the tab now too:
select rating
Wanna post a correction for this tab? Suggest correction