Oops, an error
Loading. Please wait.

Wonderful Witches tab

version 2
version 2

Whole song

1,206 views 1 this week
2 commentsread comments
1 2 3 4 5
1 last vote to show rating
add to favorites
×
Save as Personal and add changes to this tab that will be seen only by you. Learn more ›
×
You can save this tab as Personal to edit and correct it or add notes. All changes will be seen only by you. Learn more »
launch autoscroll
font size
0
reset
how to read this tab
guitar tuner
edit
Autoscroll
slow
fast
+/-
esc
set tempo
stop
My frist tab...rate please

/ - slide

Intro :

e|-----------------------------------------------|
B|-----------------------------------------------|
G|-3-33-3/6-----------------3-33-3/6-------------|
D|-3-33-3/6-33333333--------3-33-3/6-33333333----|
A|-1-11-1/4-33333333--------1-11-1/4-33333333----|
E|----------33333333-----------------33333333----|

Then play :

e|---
B|---
G|--- learn strumming by song
D|-1-
A|-1-
E|-1-

Chorus :

e|-----------------------------------------------|
B|-----------------------------------------------|
G|-5-55-55-5------------8-88-88-8----------------|
D|-5-55-55-5-6-66-66-6--8-88-88-8--5-55-55-5-----|2x
A|-3-33-33-3-6-66-66-6--6-66-66-6--5-55-55-5-----|
E|-----------6-66-66-6-------------5-55-55-5-----|

Then :

e|---
B|---
G|-3- learn strumming by song
D|-3-
A|-1-
E|---

Then play that again:

e|---
B|---
G|--- learn strumming by song
D|-1-
A|-1-
E|-1-


Chorus again:

e|-----------------------------------------------|
B|-----------------------------------------------|
G|-5-55-55-5------------8-88-88-8----------------|
D|-5-55-55-5-6-66-66-6--8-88-88-8--5-55-55-5-----|2x
A|-3-33-33-3-6-66-66-6--6-66-66-6--5-55-55-5-----|
E|-----------6-66-66-6-------------5-55-55-5-----|


Then :

e|---
B|---
G|-3- fast strumming {go mad}
D|-3-
A|-1-
E|---

Then Intro again:

e|-----------------------------------------------|
B|-----------------------------------------------|
G|-3-33-3/6-----------------3-33-3/6-------------|
D|-3-33-3/6-33333333--------3-33-3/6-33333333----|
A|-1-11-1/4-33333333--------1-11-1/4-33333333----|
E|----------33333333-----------------33333333----|

Then play that again:

e|---
B|---
G|--- learn strumming by song
D|-1-
A|-1-
E|-1-

Chorus again:

e|-----------------------------------------------|
B|-----------------------------------------------|
G|-5-55-55-5------------8-88-88-8----------------|
D|-5-55-55-5-6-66-66-6--8-88-88-8--5-55-55-5-----| playing during solo , too
A|-3-33-33-3-6-66-66-6--6-66-66-6--5-55-55-5-----|
E|-----------6-66-66-6-------------5-55-55-5-----|

Ending On Chord:

e|---------------------------|
B|---------------------------|
G|-5-55-55-5-55-5-55-5-5/8---| play this in the end
D|-5-55-55-5-55-5-55-5-5/8---|
A|-3-33-33-3-33-3-33-3-3/6---|
E|---------------------------|

            
            
Suggest correction
Creating personal tab
Creating personal tab
You can edit any tab online and save it as your Personal.

You can edit, replace or remove any tab part or add personal notes – all changes will be seen only by you.

Personal tabs can be accessed anytime from any device, even offline.
Learn more »
Give kudos to tab author, rate the tab!
1 2 3 4 5
comments
print report bad tab
2 comments total.
+1 reply
Sister Bob 226 Apr 10, 2008 11:01 AM

Not bad. Better than the other on this site, anyway. I might be wrong, but i think there's a little more going on during the verses but it's subtle with the acoustic guitar.

0 reply
taatelikoira 111 Sep 14, 2008 06:52 AM

It's all correct but it's posted in drop d although the markings claim it's standard

guest
You may want to rate the tab now too:
select rating
Wanna post a correction for this tab? Suggest correction