Oops, an error
Loading. Please wait.

Absolute Genocide tab

190 views 15 this week
1 commentread comment
1 2 3 4 5
3 more votes to show rating
add to favorites
×
Save as Personal and add changes to this tab that will be seen only by you. Learn more ›
×
You can save this tab as Personal to edit and correct it or add notes. All changes will be seen only by you. Learn more »
launch autoscroll
font size
0
reset
how to read this tab
guitar tuner
edit
Autoscroll
slow
fast
+/-
esc
set tempo
stop
About this tab version
Tasty riffs and dark tones, this has been a long time coming, but this song's tab has finally been posted to the internet. Was this info helpful? Yes No
[Intro]
(Guitar 1)
e|--------------------------------|--------------------------------|
B|6-----------6-------------------|----------------6-----------6---|
G|----9---9-------9---9-----------|--------------------9---9-------|
D|--------------------------------|--------------------------------|
A|--------------------------------|--------------------------------|
E|--------------------------------|--------------------------------|
A|--------------------------------|--------------------------------|
  Let Ring

e|--------------------------------|--------------------------------|
B|------------6---6---------------|------------6---6---------------|
G|7---7---------------9---9-------|--------------------7---7---9---|
D|--------------------------------|--------------------------------|(x4)
A|--------------------------------|--------------------------------|
E|--------------------------------|--------------------------------|
A|--------------------------------|--------------------------------|

[Hook]
(Guitar 1 and 2)                   1st Ending                       2nd Ending
e|--------------------------------|--------------------------------|------------------------------------|
B|--------------------------------|--------------------------------|------------------------------------|
G|--------------------------------|--------------------------------|------------------------------------|
D|--------------------------------|--------------------------------|------------------------------------|(x4)
A|--------------------------------|--------------------------------|------------------------------------|
E|0-0-0-0-0-0---0-0---0-0---0-0---|----0-0-0-0---0-0---0-0-0-0-0-0-|0-0-0-0---0-0-0-0---0---0-0-0-0-0-0-|
A|1-1-1-1-1-1---1-1---1-1---1-1---|----1-1-1-1---1-1---1-1-1-0-0-0-|1-1-1-1---1-1-1-1---1---1-1-1-0-0-0-|
  PM---------|  PM-|  PM-|  PM-|       PM-----|  PM-|  PM---------| PM-----|  PM-----|  PM  PM---------|

(Guitar 3)
e|--------------------------------|--------------------------------|
B|6-----------6-------------------|----------------6-----------6---|
G|----9---9-------9---9-----------|--------------------9---9-------|
D|--------------------------------|--------------------------------|
A|--------------------------------|--------------------------------|
E|--------------------------------|--------------------------------|
A|--------------------------------|--------------------------------|
  Let Ring

e|--------------------------------|--------------------------------|
B|------------6---6---------------|------------6---6---------------|
G|7---7---------------9---9-------|--------------------7---7---9---|
D|--------------------------------|--------------------------------|(x2)
A|--------------------------------|--------------------------------|
E|--------------------------------|--------------------------------|
A|--------------------------------|--------------------------------|

[Break]
(Guitar 1)
e|----------------------------|-------------------------------|
B|----------------------------|-------------------------------|
G|----------------------------|-------------------------------|
D|9-9-9--9-9-9--9-9-9--7-7-7--|9-9-9--10-10-10--9-9-9--7-7-7--|
A|----------------------------|-------------------------------|
E|7-7-7--7-7-7--7-7-7--5-5-5--|7-7-7--8--8--8---7-7-7--5-5-5--|
A|----------------------------|-------------------------------|

e|----------------------------------------|----------------------------|
B|----------------------------------------|----------------------------|
G|----------------------------------------|----------------------------|
D|12-12-12--12-12-12--12-12-12--10-10-10--|9-9-9--9-9-9--9-9-9--7-7-7--|
A|----------------------------------------|----------------------------|
E|10-10-10--10-10-10--10-10-10--8--8--8---|7-7-7--7-7-7--7-7-7--5-5-5--|
A|----------------------------------------|----------------------------|

e|-------------------------------|----------------------------------------|
B|-------------------------------|----------------------------------------|
G|-------------------------------|16-16-16--16-16-16--16-16-16--14-14-14--|
D|9-9-9--10-10-10--9-9-9--9-9-9--|----------------------------------------|
A|-------------------------------|14-14-14--14-14-14--14-14-14--12-12-12--|
E|7-7-7--8--8--8---7-7-7--7-7-7--|----------------------------------------|
A|-------------------------------|----------------------------------------|

e|----------------------------------------|----------------------------|
B|----------------------------------------|----------------------------|
G|13-13-13--13-13-13--13-13-13--10-10-10--|9-9-9--9-9-9--7-------------|
D|----------------------------------------|----------------------------|
A|11-11-11--11-11-11--11-11-11--8--8--8---|7-7-7--7-7-7--5-------------|
E|----------------------------------------|----------------------------|
A|----------------------------------------|----------------------------|

(Guitar 2)
e|--------------------------------|----------------------------------|
B|--------------------------------|----------------------------------|
G|--------------------------------|----------------------------------|
D|9-------------------------------|10---------------12---------------|
A|9-------------------------------|10---------------12---------------|
E|7-------------------------------|8----------------10---------------|
A|--------------------------------|----------------------------------|

e|--------------------------------|--------------------------------|
B|--------------------------------|--------------------------------|
G|--------------------------------|--------------------------------|
D|9-------------------------------|6---------------2---------------|
A|9-------------------------------|6---------------2---------------|
E|7-------------------------------|4---------------0---------------|
A|--------------------------------|--------------------------------|

[Verse 1 Part 1]
(Guitar 1 and 2)
e|--------------------------------|---------------------------------------|
B|--------------------------------|---------------------------------------|
G|--------------------------------|---------------------------------------|
D|--------------------------------|---------------------------------------|
A|7---8---7---------------7---8---|7--------------------------------------|
E|7---8---7---------------7---8---|7---------------10---------13----------|
A|7---8---7---7-7-7-7-7-7-7---8---|7---7-7-7-7-7-7---11-10-11----14-13-14-|
              PM---------|             PM---------|  PM------|   PM------|

e|--------------------------------|--------------------------------|
B|--------------------------------|--------------------------------|
G|--------------------------------|--------------------------------|
D|--------------------------------|--------------------------------|
A|7---8---7---------------7---8---|4-------------------------------|
E|7---8---7---------------7---8---|4-------------------------------|
A|7---8---7---7-7-7-7-7-7-7---8---|4---4-4-4-4-4-4-5-5-5-4-4-4-5-5-|
              PM---------|             PM-------------------------|

e|--------------------------------|---------------------------------------|
B|--------------------------------|---------------------------------------|
G|--------------------------------|---------------------------------------|
D|--------------------------------|---------------------------------------|
A|7---8---7---------------7---8---|7--------------------------------------|
E|7---8---7---------------7---8---|7---------------10---------13----------|
A|7---8---7---7-7-7-7-7-7-7---8---|7---7-7-7-7-7-7---11-10-11----14-13-14-|
              PM---------|             PM---------|  PM------|   PM------|

e|--------------------------------|--------------------------------|
B|--------------------------------|--------------------------------|
G|--------------------------------|--------------------------------|
D|--------------------------------|--------------------------------|
A|7---8---7---------------7---8---|4---5---4---0---1---0---5---4---|
E|7---8---7---------------7---8---|4---5---4---0---1---0---5---4---|
A|7---8---7---7-7-7-7-7-7-7---8---|4---5---4---0---1---0---5---4---|
              PM---------|

[Verse 1 Part 2]
(Guitar 1)
e|--------------------------------|---------------------------------------|
B|--------------------------------|---------------------------------------|
G|--------------------------------|---------------------------------------|
D|--------------------------------|---------------------------------------|
A|7---8---7---------------7---8---|7--------------------------------------|
E|7---8---7---------------7---8---|7---------------10---------13----------|
A|7---8---7---7-7-7-7-7-7-7---8---|7---7-7-7-7-7-7---11-10-11----14-13-14-|
              PM---------|             PM---------|  PM------|   PM------|

e|--------------------------------|--------------------------------|
B|--------------------------------|--------------------------------|
G|--------------------------------|--------------------------------|
D|--------------------------------|--------------------------------|
A|7---8---7---------------7---8---|4-------------------------------|
E|7---8---7---------------7---8---|4-------------------------------|
A|7---8---7---7-7-7-7-7-7-7---8---|4---4-4-4-4-4-4-5-5-5-4-4-4-5-5-|
              PM---------|             PM-------------------------|

e|--------------------------------|---------------------------------------|
B|--------------------------------|---------------------------------------|
G|--------------------------------|---------------------------------------|
D|--------------------------------|---------------------------------------|
A|7---8---7---------------7---8---|7--------------------------------------|
E|7---8---7---------------7---8---|7---------------10---------13----------|
A|7---8---7---7-7-7-7-7-7-7---8---|7---7-7-7-7-7-7---11-10-11----14-13-14-|
              PM---------|             PM---------|  PM------|   PM------|

e|--------------------------------|--------------------------------|
B|--------------------------------|--------------------------------|
G|--------------------------------|--------------------------------|
D|--------------------------------|--------------------------------|
A|7---8---7---------------7---8---|4---5---4---0---1---0---5---4---|
E|7---8---7---------------7---8---|4---5---4---0---1---0---5---4---|
A|7---8---7---7-7-7-7-7-7-7---8---|4---5---4---0---1---0---5---4---|
              PM---------|

(Guitar 2)
e|--------------------------------|----------------------------------------|
B|--------------------------------|----------------------------------------|
G|--------------------------------|----------------------------------------|
D|--------------------------------|----------------------------------------|
A|7---8---7---------------7---8---|7---------------------------------------|
E|7---8---7---------------7---8---|7---------------13----------16----------|
A|7---8---7---7-7-7-7-7-7-7---8---|7---7-7-7-7-7-7----14-13-14----17-16-17-|
              PM---------|             PM---------|   PM------|   PM------|

e|--------------------------------|--------------------------------|
B|--------------------------------|--------------------------------|
G|--------------------------------|--------------------------------|
D|--------------------------------|--------------------------------|
A|7---8---7---------------7---8---|4-------------------------------|
E|7---8---7---------------7---8---|4-------------------------------|
A|7---8---7---7-7-7-7-7-7-7---8---|4---4-4-4-4-4-4-8-8-8-7-7-7-8-8-|
              PM---------|             PM-------------------------|

e|--------------------------------|----------------------------------------|
B|--------------------------------|----------------------------------------|
G|--------------------------------|----------------------------------------|
D|--------------------------------|----------------------------------------|
A|7---8---7---------------7---8---|7---------------------------------------|
E|7---8---7---------------7---8---|7---------------13----------16----------|
A|7---8---7---7-7-7-7-7-7-7---8---|7---7-7-7-7-7-7----14-13-14----17-16-17-|
              PM---------|             PM---------|   PM------|   PM------|

e|--------------------------------|--------------------------------|
B|--------------------------------|--------------------------------|
G|--------------------------------|--------------------------------|
D|--------------------------------|--------------------------------|
A|7---8---7---------------7---8---|4---5---4---0---1---0---5---4---|
E|7---8---7---------------7---8---|4---5---4---0---1---0---5---4---|
A|7---8---7---7-7-7-7-7-7-7---8---|4---5---4---0---1---0---5---4---|
              PM---------|

[Bridge]
(Guitar 1)
e|--------------------------------|--------------------------------|
B|--------------------------------|--------------------------------|
G|--------------------------------|--------------------------------|
D|--------------------------------|--------------------------------|
A|--------------------------------|--------------------------------|
E|4-------5---------------4-------|5---------------4-------7-------|
A|--5-4-5---6-5-6-4-4-5-5---5-4-5-|--6-5-6-4-4-5-5---5-4-5---8-7-8-|
    PM---|  PM-----------|  PM---|   PM-----------|  PM---|  PM---|

e|--------------------------------|--------------------------------|
B|--------------------------------|--------------------------------|
G|--------------------------------|--------------------------------|
D|--------------------------------|--------------------------------|
A|--------------------------------|--------------------------------|
E|4-------5-----------------------|4-------5-------7-------8-------|
A|--5-4-5---6-5-6-4-4-5-5-4-4-0-0-|--5-4-5---6-5-6---8-7-8---9-8-9-|
    PM---|  PM-------------------|   PM---|  PM---|  PM---|  PM---|

e|--------------------------------|--------------------------------|
B|--------------------------------|--------------------------------|
G|--------------------------------|--------------------------------|
D|--------------------------------|--------------------------------|
A|--------------------------------|--------------------------------|
E|4-------5---------------4-------|5---------------4-------7-------|
A|--5-4-5---6-5-6-4-4-5-5---5-4-5-|--6-5-6-4-4-5-5---5-4-5---8-7-8-|
    PM---|  PM-----------|  PM---|   PM-----------|  PM---|  PM---|

e|--------------------------------|--------------------------------|
B|--------------------------------|--------------------------------|
G|--------------------------------|--------------------------------|
D|--------------------------------|--------------------------------|
A|--------------------------------|4---5---4---0---1---0---5---4---|
E|4-------5-----------------------|4---5---4---0---1---0---5---4---|
A|--5-4-5---6-5-6-4-4-5-5-4-4-0-0-|4---5---4---0---1---0---5---4---|
    PM---|  PM-------------------|

(Guitar 2)
e|--------------------------------|--------------------------------|
B|--------------------------------|--------------------------------|
G|--------------------------------|--------------------------------|
D|--------------------------------|--------------------------------|
A|--------------------------------|--------------------------------|
E|4-------5---------------4-------|5---------------4-------7-------|
A|--5-4-5---6-5-6-4-4-5-5---5-4-5-|--6-5-6-4-4-5-5---5-4-5---8-7-8-|
    PM---|  PM-----------|  PM---|   PM-----------|  PM---|  PM---|

e|--------------------------------|-------------------------------------|
B|--------------------------------|-------------------------------------|
G|--------------------------------|-------------------------------------|
D|--------------------------------|-------------------------------------|
A|--------------------------------|-------------------------------------|
E|4-------5-----------------------|7-------8-------10-------11----------|
A|--5-4-5---6-5-6-4-4-5-5-4-4-0-0-|--8-7-8---9-8-9----11-10----12-11-12-|
    PM---|  PM-------------------|   PM---|  PM---|   PM---|   PM------|

e|--------------------------------|--------------------------------|
B|--------------------------------|--------------------------------|
G|--------------------------------|--------------------------------|
D|--------------------------------|--------------------------------|
A|--------------------------------|--------------------------------|
E|4-------5---------------4-------|5---------------4-------7-------|
A|--5-4-5---6-5-6-4-4-5-5---5-4-5-|--6-5-6-4-4-5-5---5-4-5---8-7-8-|
    PM---|  PM-----------|  PM---|   PM-----------|  PM---|  PM---|

e|--------------------------------|--------------------------------|
B|--------------------------------|--------------------------------|
G|--------------------------------|--------------------------------|
D|--------------------------------|--------------------------------|
A|--------------------------------|4---5---4---0---1---0---5---4---|
E|4-------5-----------------------|4---5---4---0---1---0---5---4---|
A|--5-4-5---6-5-6-4-4-5-5-4-4-0-0-|4---5---4---0---1---0---5---4---|
    PM---|  PM-------------------|

[Breakdown 1]
(Guitar 1)
e|--------------------------------|--------------------------------|
B|--------------------------------|--------------------------------|
G|--------------------------------|--------------------------------|
D|--------------------------------|--------------------------------|
A|--------------------------------|--------------------------------|
E|0-------0---0-------0---0-------|----0---0---0-------0---0-------|
A|1-------1---1-------1---1-------|----1---1---1-------1---1-------|
  PM--------------------------------------------------------------|

e|--------------------------------|--------------------------------|
B|--------------------------------|--------------------------------|
G|--------------------------------|--------------------------------|
D|--------------------------------|--------------------------------|(x4)
A|--------------------------------|--------------------------------|
E|----0-------0-------0-------0---|0---0---0---0-------0---0-------|
A|----1-------1-------1-------1---|1---1---1---1-------1---1-------|
      PM----------------------------------------------------------|

(Guitar 2)
e|----------------|----------------|----------------|--------------------------------|
B|----------------|----------------|----------------|--------------------------------|
G|----------------|----------------|----------------|--------------------------------|
D|----------------|----------------|----------------|--------------------------------|(x2)
A|----------------|----------------|----------------|--------------------------------|
E|0---------------|----------------|----------------|0---0---0---0-------0---0-------|
A|1---------------|----------------|----------------|1---1---1---1-------1---1-------|
  PM--------------------------------------------------------------------------------|

e|--------------------------------|--------------------------------|
B|--------------------------------|--------------------------------|
G|--------------------------------|--------------------------------|
D|--------------------------------|--------------------------------|
A|--------------------------------|--------------------------------|
E|0-------0---0-------0---0-------|----0---0---0-------0---0-------|
A|1-------1---1-------1---1-------|----1---1---1-------1---1-------|
  PM--------------------------------------------------------------|

e|--------------------------------|--------------------------------|
B|--------------------------------|--------------------------------|
G|--------------------------------|--------------------------------|
D|--------------------------------|--------------------------------|(x2)
A|--------------------------------|--------------------------------|
E|----0-------0-------0-------0---|0---0---0---0-------0---0-------|
A|----1-------1-------1-------1---|1---1---1---1-------1---1-------|
      PM----------------------------------------------------------|


[Outro Breakdown]
(Guitar 1)
e|--------------------------------|--------------------------------|
B|--------------------------------|--------------------------------|
G|--------------------------------|--------------------------------|
D|--------------------------------|--------------------------------|
A|--------------------------------|--------------------------------|
E|0---0---0---0---0---0---0---0---|0---0---0---0---0---0---0---0---|
A|1---1---1---1---1---1---1---1---|1---1---1---1---1---1---1---1---|
  PM--------------------------------------------------------------|

                                   Absolute Genocide!
e|--------------------------------|----------------|
B|--------------------------------|----------------|
G|--------------------------------|----------------|
D|--------------------------------|----------------|
A|--------------------------------|----------------|
E|0---0---0---0---0-0-0---0-0-0---|----------------|
A|1---1---1---1---1-1-1---1-1-1---|----------------|
  PM-----------------------------|

(Guitar 2)
e|--------------------------------|--------------------------------|
B|--------------------------------|--------------------------------|
G|--------------------------------|--------------------------------|
D|--------------------------------|--------------------------------|
A|--------------------------------|--------------------------------|
E|0---------------------------0---|------------0---0---------------|
A|1---------------------------1---|------------1---1---------------|


e|--------------------------------|----------------|
B|--------------------------------|----------------|
G|--------------------------------|----------------|
D|--------------------------------|----------------|
A|--------------------------------|----------------|
E|----0-----------0-0-0---0-0-0---|----------------|
A|----1-----------1-1-1---1-1-1---|----------------|
                  PM-------------|

(Guitar 1 and 2)
e|--------------------------------|--------------------------------|--------------------------------|
B|--------------------------------|--------------------------------|--------------------------------|
G|--------------------------------|--------------------------------|--------------------------------|
D|--------------------------------|--------------------------------|--------------------------------|(x2)
A|--------------------------------|--------------------------------|--------------------------------|
E|0---0---0---0---0---0---0---0---|0---0---0---0---0---0---0---0---|0---0---0---0---0-0-0---0-0-0---|
A|1---1---1---1---1---1---1---1---|1---1---1---1---1---1---1---1---|1---1---1---1---1-1-1---1-1-1---|
      PM---------------------|     PM---------|        PM--------------|    PM---------------------|

e|--------------------------------|--------------------------------|
B|--------------------------------|--------------------------------|
G|--------------------------------|--------------------------------|
D|--------------------------------|--------------------------------|
A|--------------------------------|--------------------------------|
E|0---0---0---0---0---0---0---0---|0---0---0---0---0---0---0---0---|
A|1---1---1---1---1---1---1---1---|1---1---1---1---1---1---1---1---|
      PM---------------------|     PM---------|        PM-----|

e|--------------------------------|--------------------------------|
B|--------------------------------|--------------------------------|
G|--------------------------------|--------------------------------|
D|--------------------------------|--------------------------------|(x2)
A|--------------------------------|4---5---4---0---1---0---5---4---|
E|0---0---0---0---0---0---0---0---|4---5---4---0---1---0---5---4---|
A|1---1---1---1---1---1---1---1---|4---5---4---0---1---0---5---4---|
      PM-|    PM-----------------|


************************************

| PM  Palm mute

************************************
Suggest correction
Creating personal tab
Creating personal tab
You can edit any tab online and save it as your Personal.

You can edit, replace or remove any tab part or add personal notes – all changes will be seen only by you.

Personal tabs can be accessed anytime from any device, even offline.
Learn more »
Give kudos to tab author, rate the tab!
1 2 3 4 5
comments
print report bad tab
1 comment total.
0 reply
LMBozovich 706 Jun 09, 2017 01:24 PM

Guys, thanks for looking at this tab. Make sure to rate.

guest
You may want to rate the tab now too:
select rating
Wanna post a correction for this tab? Suggest correction