Oops, an error
Loading. Please wait.

Coffin Dragger tab

version 1
version 1

Whole song

  • This is Coffin Dragger by Thy Art Is Murder. It's ... Show more
274 views 24 this week
1 commentread comment
1 2 3 4 5
1 last vote to show rating
add to favorites
×
Save as Personal and add changes to this tab that will be seen only by you. Learn more ›
×
You can save this tab as Personal to edit and correct it or add notes. All changes will be seen only by you. Learn more »
launch autoscroll
font size
0
reset
how to read this tab
guitar tuner
edit
Autoscroll
slow
fast
+/-
esc
set tempo
stop
About this tab version
This is Coffin Dragger by Thy Art Is Murder. It's a simple 4/4 time, in the key of A Phrygian Dominant. Was this info helpful? Yes No
[Intro]
(Guitar 1)
e|-----------------------------|---------------------------|
B|-----------------------------|---------------------------|
G|3---4---3--------------------|---------------------------|
D|3---4---3--------------------|---------------------------|(x3)
A|1---2---1--------------------|---------------------------|
E|1---2---1-------0-0-0--0--0--|0--0-0-0--0--0-0-0--0-0-0--|
A|1---2---1-------1-1-1--1--1--|1--1-1-1--1--1-1-1--1-1-1--|
                  PM--------------------------------------|

e|-----------------------------|---------------------------|
B|-----------------------------|---------------------------|
G|----------------6------------|-------7-------------6-----|
D|----------------6------------|-------7-------------6-----|
A|----------------4------------|-------5-------------4-----|
E|0-0-0---0-0-0---4-----0-0-0--|0-0-0--5------0-0-0--4-----|
A|1-1-1---1-1-1---4-----1-1-1--|1-1-1--5------1-1-1--4-----|
  PM-----------|        PM-----------|        PM----|

(Guitar 2)
e|-----------------------------|---------------------------|
B|-----------------------------|---------------------------|
G|3---4---3--------------------|---------------------------|
D|3---4---3--------------------|---------------------------|(x2)
A|1---2---1--------------------|---------------------------|
E|1---2---1-------0-0-0--0--0--|0--0-0-0--0--0-0-0--0-0-0--|
A|1---2---1-------1-1-1--1--1--|1--1-1-1--1--1-1-1--1-1-1--|
                  PM--------------------------------------|

e|-------------------------------------------|
B|-------------------------------------------|
G|3---4---3----------------------------------|
D|3---4---3----------------------------------|
A|1---2---1----------------------------------|
E|1---2---1----------------------------------|
A|1---2---1----------------------------------|

e|-----------------------------|---------------------------|
B|-----------------------------|---------------------------|
G|----------------6------------|-------7-------------6-----|
D|----------------6------------|-------7-------------6-----|
A|----------------4------------|-------5-------------4-----|
E|0-0-0---0-0-0---4-----0-0-0--|0-0-0--5------0-0-0--4-----|
A|1-1-1---1-1-1---4-----1-1-1--|1-1-1--5------1-1-1--4-----|
  PM-----------|        PM-----------|        PM----|

(Guitar 1 and 2)
e|-----------------------------|---------------------------|
B|-----------------------------|---------------------------|
G|3---4---3--------------------|---------------------------|
D|3---4---3--------------------|---------------------------|(x3)
A|1---2---1--------------------|---------------------------|
E|1---2---1-------0-0-0--0--0--|0--0-0-0--0--0-0-0--0-0-0--|
A|1---2---1-------1-1-1--1--1--|1--1-1-1--1--1-1-1--1-1-1--|
                  PM--------------------------------------|

e|-----------------------------|---------------------------|
B|-----------------------------|---------------------------|
G|----------------6------------|-------7-------------6-----|
D|----------------6------------|-------7-------------6-----|
A|----------------4------------|-------5-------------4-----|
E|0-0-0---0-0-0---4-----0-0-0--|0-0-0--5------0-0-0--4-----|
A|1-1-1---1-1-1---4-----1-1-1--|1-1-1--5------1-1-1--4-----|
  PM-----------|        PM-----------|        PM----|

e|-----------------------------|---------------------------|
B|-----------------------------|---------------------------|
G|3---4---3--------------------|---------------------------|
D|3---4---3--------------------|---------------------------|(x3)
A|1---2---1--------------------|---------------------------|
E|1---2---1-------0-0-0--0--0--|0--0-0-0--0--0-0-0--0-0-0--|
A|1---2---1-------1-1-1--1--1--|1--1-1-1--1--1-1-1--1-1-1--|
                  PM--------------------------------------|

e|-----------------------------|---------------------------|
B|-----------------------------|---------------------------|
G|----------------6------------|-------7-------------6-----|
D|----------------6------------|-------7-------------6-----|
A|----------------4------------|-------5-------------4-----|
E|0-0-0---0-0-0---4-----0-0-0--|0-0-0--5------0-0-0--4-----|
A|1-1-1---1-1-1---4-----1-1-1--|1-1-1--5------1-1-1--4-----|
  PM-----------|        PM-----------|        PM----|

[Pre-Verse]
(Guitar 1)
e|--------------------------------|--------------------------------|
B|--------------------------------|--------------------------------|
G|--------------------------------|--------------------------------|
D|--------------------------------|--------------------------------|
A|--------------------------------|--------------------------------|
E|1-1-----------------------------|1-1-----------------------------|
A|1-1-----------------------------|1-1-----------------------------|
  . .                              . .

e|--------------------------------|--------------------------------|
B|--------------------------------|--------------------------------|
G|--------------------------------|--------------------------------|
D|--------------------------------|--------------------------------|
A|--------------------------------|--------------------------------|
E|2---1---------------------------|1-------1-------2-------1-------|
A|2---1---------------------------|--2-1-2---2-1-2---2-1-2---------|
                                     PM---|  PM---|  PM---|
(Guitar 2)
e|--------------------------------|--------------------------------|
B|--------------------------------|--------------------------------|
G|--------------------------------|--------------------------------|
D|--------------------------------|--------------------------------|
A|--------------------------------|--------------------------------|
E|--------1---------------2-------|1-------1-------2-------1-------|
A|1-2-1-2---2-1-2-1-2-1-2---2-1-2-|--2-1-2---2-1-2---2-1-2---2-1-2-|
  PM-----|  PM-----------|  PM---|   PM---|  PM---|  PM---|  PM---|

e|--------------------------------|--------------------------------|
B|--------------------------------|--------------------------------|
G|--------------------------------|--------------------------------|
D|--------------------------------|--------------------------------|
A|--------------------------------|--------------------------------|
E|--------1---------------2-------|1-------1-------2-------1-------|
A|1-2-1-2---2-1-2-1-2-1-2---2-1-2-|--2-1-2---2-1-2---2-1-2---------|
  PM-----|  PM-----------|  PM---|   PM---|  PM---|  PM---|

[Verse]
(Guitar 1 and 2)
e|--------------------------------|--------------------------------|
B|--------------------------------|--------------------------------|
G|--------------------------------|--------------------------------|
D|--------------------------------|--------------------------------|(x2)
A|--------------------------------|--------------------------------|
E|--------1---------------2-------|1-------1-------2-------1-------|
A|1-2-1-2---2-1-2-1-2-1-2---2-1-2-|--2-1-2---2-1-2---2-1-2---2-1-2-|

(Guitar 1)
e|----------------|
B|----------------|
G|3-4-3-----------|
D|3-4-3-----------|
A|1-2-1-----------|
E|1-2-1-----------|
A|1-2-1-----------|

(Guitar 2)
e|----------------|
B|----------------|
G|--------3-4-3---|
D|--------3-4-3---|
A|--------1-2-1---|
E|--------1-2-1---|
A|--------1-2-1---|

[Chorus]
(Guitar 1)
e|-----------------------------|---------------------------|
B|-----------------------------|---------------------------|
G|3---4---3--------------------|---------------------------|
D|3---4---3--------------------|---------------------------|(x3)
A|1---2---1--------------------|---------------------------|
E|1---2---1-------0-0-0--0--0--|0--0-0-0--0--0-0-0--0-0-0--|
A|1---2---1-------1-1-1--1--1--|1--1-1-1--1--1-1-1--1-1-1--|
                  PM--------------------------------------|

e|-----------------------------|---------------------------|
B|-----------------------------|---------------------------|
G|----------------6------------|-------7-------------6-----|
D|----------------6------------|-------7-------------6-----|
A|----------------4------------|-------5-------------4-----|
E|0-0-0---0-0-0---4-----0-0-0--|0-0-0--5------0-0-0--4-----|
A|1-1-1---1-1-1---4-----1-1-1--|1-1-1--5------1-1-1--4-----|
  PM-----------|        PM-----------|        PM----|

e|-----------------------------|---------------------------|
B|-----------------------------|---------------------------|
G|3---4---3--------------------|---------------------------|
D|3---4---3--------------------|---------------------------|(x3)
A|1---2---1--------------------|---------------------------|
E|1---2---1-------0-0-0--0--0--|0--0-0-0--0--0-0-0--0-0-0--|
A|1---2---1-------1-1-1--1--1--|1--1-1-1--1--1-1-1--1-1-1--|
                  PM--------------------------------------|

e|-----------------------------|---------------------------|
B|-----------------------------|---------------------------|
G|----------------6------------|-------7-------------6-----|
D|----------------6------------|-------7-------------6-----|
A|----------------4------------|-------5-------------4-----|
E|0-0-0---0-0-0---4-----0-0-0--|0-0-0--5------0-0-0--4-----|
A|1-1-1---1-1-1---4-----1-1-1--|1-1-1--5------1-1-1--4-----|
  PM-----------|        PM-----------|        PM----|

(Guitar 2)
e|-----------------------------------|---------------------------------------|
B|-----------------------------------|14-------------------------------------|
G|-------10-----11-------------------|-------11-----10~----------------------|
D|13---------------------------------|---------------------------------------|(x4)
A|-----------------------------------|---------------------------------------|
E|-----------------------------------|---------------------------------------|
A|-----------------------------------|---------------------------------------|


[Breakdown]
(Guitar 1 and 2)
e|--------------------------------------|-------------------------------------------|
B|--------------------------------------|-------------------------------------------|
G|--------------------------------------|-------------------------------------------|
D|--------------------------------------|-------------------------------------------|(x2)
A|--------------------------------------|-------------------------------------------|
E|---------0--0----0-0-0-0--0--0--0--0--|---------0--0--0--0-0-0-0--0--0--0--0-0-0--|
A|1pbr-----1--1----1-1-1-1--1--1--1--1--|1pbr-----1--1--1--1-1-1-1--1--1--1--1-1-1--|
           PM--------------------------|          PM-------------------------------|
(pre-bend 1/4 step)

[Outro]
(Guitar 1)
e|-----------------------------------|---------------------------------------|
B|-----------------------------------|14-------------------------------------|
G|-------10-----11-------------------|-------11-----10~----------------------|
D|13---------------------------------|---------------------------------------|(x3)
A|-----------------------------------|---------------------------------------|
E|-----------------------------------|---------------------------------------|
A|-----------------------------------|---------------------------------------|

(Guitar 2)
e|------------------------------------|---------------------------------------------------------|
B|------------------------------------|---------------------------------------------------------|
G|------------------------------------|3---4---3------------------------------------------------|
D|------------------------------------|3---4---3------------------------------------------------|
A|------------------------------------|1---2---1------------------------------------------------|
E|0-0-0-0---0-0-0-0---0-0-0---0-0-0---|1---2---1-------0-0-0--0--0---0--0-0-0--0--0-0-0--0-0-0--|
A|1-1-1-1---1-1-1-1---1-1-1---1-1-1---|1---2---1-------1-1-1--1--1---1--1-1-1--1--1-1-1--1-1-1--|
  PM-----|  PM-----|  PM-------------|                 PM---------------------------------------|

e|------------------------------------|---------------------------------------------------------|
B|------------------------------------|---------------------------------------------------------|
G|------------------------------------|----------------6--------------------7-------------6-----|
D|------------------------------------|----------------6--------------------7-------------6-----|(x2)
A|------------------------------------|----------------4--------------------5-------------4-----|
E|0-0-0-0---0-0-0-0---0-0-0---0-0-0---|0-0-0---0-0-0---4-----0-0-0---0-0-0--5------0-0-0--4-----|
A|1-1-1-1---1-1-1-1---1-1-1---1-1-1---|1-1-1---1-1-1---4-----1-1-1---1-1-1--5------1-1-1--4-----|
  PM-----|  PM-----|  PM------------------------------|      PM------------|       PM----|


************************************
| ~   vibrato
| pbr Pre-bend release
| PM  Palm mute
| .   Staccato
************************************

            
            
Suggest correction
Creating personal tab
Creating personal tab
You can edit any tab online and save it as your Personal.

You can edit, replace or remove any tab part or add personal notes – all changes will be seen only by you.

Personal tabs can be accessed anytime from any device, even offline.
Learn more »
Give kudos to tab author, rate the tab!
1 2 3 4 5
comments
print report bad tab
1 comment total.
0 reply
LMBozovich 731 Jun 06, 2017 05:28 PM

Make sure to rate this tab

guest
You may want to rate the tab now too:
select rating
Wanna post a correction for this tab? Suggest correction