Oops, an error
Loading. Please wait.

Dead Sun tab

version 1
version 1

Whole song

  • This version corrects both Tab Pro versions, in bo... Show more

Interactive

100 views 24 this week
1 commentread comment
1 2 3 4 5
1 last vote to show rating
add to favorites
×
Save as Personal and add changes to this tab that will be seen only by you. Learn more ›
×
You can save this tab as Personal to edit and correct it or add notes. All changes will be seen only by you. Learn more »
launch autoscroll
font size
0
reset
how to read this tab
guitar tuner
edit
Autoscroll
slow
fast
+/-
esc
set tempo
stop
About this tab version
This version corrects both Tab Pro versions, in both the tuning, and number of strings, with some help from richoSix on his guitar cover. Was this info helpful? Yes No
[Intro]
(Guitar 1)
e|--------------------------------|--------------------------------|
B|--------------------------------|--------------------------------|
G|3---------------------------4---|3---------------------------4---|
D|3---------------------------4---|3---------------------------4---|
A|1---------------------------2---|1---------------------------2---|
E|1---------------------------2---|1---------------------------2---|
A|1---1-1-1-1-1-1-1-1-1-1-1-1-2---|1---1-1-1-1-1-1-1-1-1-1-1-1-2---|
      PM---------------------|         PM---------------------|

e|--------------------------------|--------------------------------|
B|--------------------------------|--------------------------------|
G|3-------------------------------|--------------------------------|
D|3-------------------------------|--------------------------------|
A|1-------------------------------|--------------------------------|
E|1-------------------------------|--------------------------------|
A|1---1-1-1-1-1-1-1-1-1-1-1-1-1-1-|1N----4N----1N--2N------5-------|
      PM-------------------------|

(Guitar 2)
e|--------------------------------|--------------------------------|
B|--------------------------------|--------------------------------|
G|3---------------------------4---|3---------------------------4---|
D|3---------------------------4---|3---------------------------4---|
A|1---------------------------2---|1---------------------------4---|
E|1---------------------------2---|1---------------------------2---|
A|1---------------------------2---|1---------------------------2---|

e|--------------------------------|--------------------------------|
B|--------------------------------|--------------------------------|
G|3-------------------------------|--------------------------------|
D|3-------------------------------|--------------------------------|
A|1-------------------------------|--------------------------------|
E|1-------------------------------|------------------------0-------|
A|1-------------------------------|------------------------0-------|

[Hook]
(Guitar 1 and 2)
e|--------------------------------|--------------------------------|
B|--------------------------------|--------------------------------|
G|3---------------------------4---|3---------------------------4---|
D|3---------------------------4---|3---------------------------4---|
A|1---------------------------2---|1---------------------------2---|
E|1---------------------------2---|1---------------------------2---|
A|1---1-1-1-1-1-1-1-1-1-1-1-1-2---|1---1-1-1-1-1-1-1-1-1-1-1-1-2---|
      PM---------------------|         PM---------------------|

e|--------------------------------|--------------------------------|
B|--------------------------------|--------------------------------|
G|3-------------------------------|--------------------------------|
D|3-------------------------------|--------------------------------|
A|1-------------------------------|--------------------------------|
E|1-------------------------------|--------------------------------|
A|1---1-1-1-1-1-1-1-1-1-1-1-1-1-1-|1N----4N----1N--2N------5N------|
      PM-------------------------|

[Build-Up 1]
(Guitar 1 and 2)
e|--------------------------------|--------------------------------|
B|--------------------------------|--------------------------------|
G|3-------------------------------|4-------------------------------|
D|3-------------------------------|3-------------------------------|
A|1-------------------------------|1-------------------------------|
E|1---------------------------0---|1-------------------------------|
A|1---------------------------0---|1-------------------------------|

e|--------------------------------|--------------------------------|
B|--------------------------------|--------------------------------|
G|7-------------------------------|10------------------------------|
D|7-------------------------------|10------------------------------|(x2)
A|5-------------------------------|8-------------------------------|
E|5---------------------------0---|8-------------------------------|
A|5---------------------------0---|8-------------------------------|

[Verse 1 Part 1]
(Guitar 1 and 2)
e|--------------------------------|----------------------------------|
B|--------------------------------|----------------------------------|
G|--------------------------------|----------------------------------|
D|--------------------------------|----------------------------------|
A|--------------------------------|----------------------------------|
E|--------------------4h7---------|--------7p4-------------10p7------|
A|1---1-1-2---1-1-5h8-----1---1-1-|2---1-1-----8p5-4-5-6-7------11p8-|
      PM-|    PM-|            PM-|     PM-|        PM-----|

e|--------------------------------|--------------------------------------|
B|--------------------------------|--------------------------------------|
G|--------------------------------|--------------------------------------|
D|--------------------------------|--------------------------------------|(x2)
A|--------------------------------|--------------------------------------|
E|--------------------4h7---------|--------7p4-----10p7------13p10-------|
A|1---1-1-2---1-1-5h8-----1---1-1-|2---1-1-----8p5------11p8-------14p11-|
      PM-|    PM-|            PM-|     PM-|

[Verse 1 Part 2]
(Guitar 1)
e|--------------------------------|----------------------------------|
B|--------------------------------|----------------------------------|
G|--------------------------------|----------------------------------|
D|--------------------------------|----------------------------------|(x4)
A|--------------------------------|----------------------------------|
E|4-1-----------------4-1---------|--------4-1-----7-4-----10-7------|
A|----6-5-4-1-4-5---------6-5-4-1-|4-5---------5-2-----8-5------11-8-|
      PM-----|            PM-----|

(Guitar 2)
e|--------------------------------|----------------------------------|
B|--------------------------------|----------------------------------|
G|--------------------------------|----------------------------------|
D|--------------------------------|----------------------------------|(x2)
A|--------------------------------|----------------------------------|
E|4-1-----------------4-1---------|--------4-1-----7-4-----10-7------|
A|----6-5-4-1-4-5---------6-5-4-1-|4-5---------5-2-----8-5------11-8-|
      PM-----|            PM-----|

e|--------------------------------|--------------------------------------|
B|--------------------------------|--------------------------------------|
G|--------------------------------|--------------------------------------|
D|--------------------------------|--------------------------------------|(x2)
A|--------------------------------|--------------------------------------|
E|7-4-----------------7-4---------|--------7-4-----10-7------13-10-------|
A|----9-8-7-4-7-8---------9-8-7-4-|7-8---------8-5------11-8-------14-11-|
      PM-----|            PM-----|

[Break]
(Guitar 1)
e|--------------------------------|--------------------------------|
B|--------------------------------|--------------------------------|
G|--------------------------------|--------------------------------|
D|--------------------------------|--------------------------------|(x2)
A|1-------------------------------|(1)---------------------1-1-----|
E|1-------------------------------|(1)---------------------1-1-----|
A|1-------------------------------|(1)---------------------1-1-----|

(Guitar 2)
e|--------------------------------|--------------------------------|
B|--------------------------------|--------------------------------|
G|--------------------------------|--------------------------------|
D|--------------------------------|--------------------------------|
A|1-----1-1-1-1-----1-----1-1-1---|--1-----1-1-1-----1-----1-1-----|
E|1-----1-1-1-1-----1-----1-1-1---|--1-----1-1-1-----1-----1-1-----|
A|1-----1-1-1-1-----1-----1-1-1---|--1-----1-1-1-----1-----1-1-----|
  PM----------------------------------------------------------|

[Breakdown]
(Guitar 1 and 2)
e|--------------------------------|--------------------------------|
B|--------------------------------|--------------------------------|
G|--------------------------------|--------------------------------|
D|--------------------------------|--------------------------------|(x4)
A|--------------------------------|--------------------------------|
E|1-----1-1-1-1-----1-----1-1-1---|--1-----1-1-1-----1-----1-1-----|
A|2-----2-2-2-2-----2-----2-2-2---|--2-----2-2-2-----2-----2-2-----|
  PM----------------------------------------------------------|

[Bridge]
(Guitar 1)
e|--------------------------------|--------------------------------|
B|--------------------------------|--------------------------------|
G|16N-------------15N-------------|19N-------------20N-------------|
D|--------------------------------|--------------------------------|(x4)
A|14N-------------13N-------------|17N-------------18N-------------|
E|--------------------------------|--------------------------------|
A|--------------------------------|--------------------------------|

e|--------------------------------|--------------------------------|
B|--------------------------------|--------------------------------|
G|--------------------------------|--------------------------------|
D|--------------------------------|--------------------------------|(x2)
A|2-------------------------------|6---------------9---------------|
E|2-------------------------------|6---------------9---------------|
A|2-------------------------------|6---------------9---------------|

(Guitar 2)
e|--------------------------------|--------------------------------|
B|----------------4-------4-------|6-----6---------6---6b7r6-------|
G|4-----4-------4-------4-------4-|--4-----4-----4---4-------4-----|
D|----8---8---8-------8-------8---|----8-----8-------------------8-|(x6)
A|--------------------------------|--------------------------------|
E|--------------------------------|--------------------------------|
A|--------------------------------|--------------------------------|
  Let Ring

[Outro]
(Guitar 1 and 2)
e|--------------------------------|--------------------------------|
B|--------------------------------|--------------------------------|
G|--------------------------------|--------------------------------|
D|--------------------------------|--------------------------------|
A|--------------------------------|------------------------2-------|
E|--------------------------------|--------4p1-----7p4-----2-------|
A|2-2-2-2-2-2-2h5-----2-2-2-2-2-2-|2h5---------5p2-----8p5-2-------|
  PM---------|        PM---------|

e|--------------------------------|--------------------------------|
B|--------------------------------|--------------------------------|
G|--------------------------------|--------------------------------|
D|--------------------------------|--------------------------------|
A|--------------------------------|------------------------1-------|
E|--------------------------------|--------4p1-----7p4-----1-------|
A|1-1-1-1-1-1-1h5-----1-1-1-1-1-1-|1h5---------5p2-----8p5-1-------|
  PM---------|        PM---------|

e|--------------------------------|--------------------------------|
B|--------------------------------|--------------------------------|
G|--------------------------------|--------------------------------|
D|--------------------------------|--------------------------------|
A|--------------------------------|------------------------2-------|
E|--------------------------------|--------4p1-----7p4-----2-------|
A|2-2-2-2-2-2-2h5-----2-2-2-2-2-2-|2h5---------5p2-----8p5-2-------|
  PM---------|        PM---------|

e|--------------------------------|--------------------------------|--------------------------------|
B|--------------------------------|--------------------------------|--------------------------------|
G|--------------------------------|--------------------------------|--------------------------------|
D|--------------------------------|--------------------------------|--------------------------------|
A|--------------------------------|---------------------1----------|2-------------------------------|
E|--------------------------------|---------------------1----------|2-------------------------------|
A|1-1-1-1-1-1-1h5-----1-1-1-1-1-1-|1-1-1--1-1-1--1-1-1--1----------|2-------------------------------|
  PM---------|        PM---------| PM---| PM---| PM---|


************************************

| (n) Ghost note
| h   Hammer-on
| p   Pull-off
| r   Release
| b   Bend
| PM  Palm mute
| N   Tremolo

************************************

            
            
Suggest correction
Creating personal tab
Creating personal tab
You can edit any tab online and save it as your Personal.

You can edit, replace or remove any tab part or add personal notes – all changes will be seen only by you.

Personal tabs can be accessed anytime from any device, even offline.
Learn more »
Give kudos to tab author, rate the tab!
1 2 3 4 5
comments
print report bad tab
1 comment total.
0 reply
LMBozovich 731 Jul 04, 2017 01:24 AM

Don't forget to rate this tab.

guest
You may want to rate the tab now too:
select rating
Wanna post a correction for this tab? Suggest correction