Oops, an error
Loading. Please wait.

Holy War tab

version 1
version 1

Whole song

  • This tab is based off the guitar cover performed by Pieter Rietkerk.

Interactive

43 views 36 this week
no commentswrite comment
1 2 3 4 5
3 more votes to show rating
add to favorites
×
Save as Personal and add changes to this tab that will be seen only by you. Learn more ›
×
You can save this tab as Personal to edit and correct it or add notes. All changes will be seen only by you. Learn more »
launch autoscroll
font size
0
reset
how to read this tab
guitar tuner
edit
Autoscroll
slow
fast
+/-
esc
set tempo
stop
About this tab version
This tab is based off the guitar cover performed by Pieter Rietkerk. Was this info helpful? Yes No
[Intro]
(Guitar 1)                             1st Ending
e|------------------------------------|------------------------------------|
B|------17----17----17----17----17----|------17----17----18----18----18----|
G|------------------------------------|------------------------------------|
D|14/15----15----15----15----15----15-|14/15----15----15----15----15----15-|
A|------------------------------------|------------------------------------|
E|------------------------------------|------------------------------------|
A|------------------------------------|------------------------------------|

  2nd Ending
e|------------------------------------|
B|------17----17----14----14-14----14-|
G|------------------------------------|
D|14/15----15----15----15-------15----|(x2)
A|------------------------------------|
E|------------------------------------|
A|------------------------------------|


[Hook 1]
(Guitar 1)                             1st Ending
e|------------------------------------|------------------------------------|
B|------17----17----17----17----17----|------17----17----18----18----18----|
G|------------------------------------|------------------------------------|
D|14/15----15----15----15----15----15-|14/15----15----15----15----15----15-|
A|------------------------------------|------------------------------------|
E|------------------------------------|------------------------------------|
A|------------------------------------|------------------------------------|

  2nd Ending
e|------------------------------------|
B|------17----17----14----14-14----14-|
G|------------------------------------|
D|14/15----15----15----15-------15----|(x4)
A|------------------------------------|
E|------------------------------------|
A|------------------------------------|

(Guitar 2)
e|---------------------------------|--------------------------------|
B|---------------------------------|--------------------------------|
G|---------------------------------|--------------------------------|
D|---------------------------------|--------------------------------|(x3)
A|---------------------------------|--------------------------------|
E|0----------0--0-0----------------|---0--0-0--------0-0-0--0--0--0-|
A|1----------1--1-1----------------|---1--1-1--------1-1-1--1--1--1-|
  PM-|       PM-----|                  PM-----|      PM------------|

  FIRING BULLETS THROUGH THE SKULLS OF THE CHILDREN
e|--------------------------------|--------------------------------|
B|--------------------------------|--------------------------------|
G|--------------------------------|--------------------------------|
D|--------------------------------|--------------------------------|
A|--------------------------------|--------------------------------|
E|0-------------------------------|--------------------------------|
A|1-------------------------------|--------------------------------|
  PM

(Guitar 1)                             1st Ending
e|------------------------------------|------------------------------------|
B|------17----17----17----17----17----|------17----17----18----18----18----|
G|------------------------------------|------------------------------------|
D|14/15----15----15----15----15----15-|14/15----15----15----15----15----15-|
A|------------------------------------|------------------------------------|
E|------------------------------------|------------------------------------|
A|------------------------------------|------------------------------------|

  2nd Ending
e|------------------------------------|
B|------17----17----14----14-14----15-|
G|------------------------------------|
D|14/15----15----15----15-------15----|(x2)
A|------------------------------------|
E|------------------------------------|
A|------------------------------------|

(Guitar 2)
e|---------------------------------|--------------------------------|
B|---------------------------------|--------------------------------|
G|---------------------------------|--------------------------------|
D|---------------------------------|--------------------------------|
A|---------------------------------|--------------------------------|
E|0----------0--0-0----------------|---0--0-0--------0-0-0--0--0--0-|
A|1----------1--1-1----------------|---1--1-1--------1-1-1--1--1--1-|
  PM-|       PM-----|                  PM-----|      PM------------|

e|---------------------------------|--------------------------------|
B|---------------------------------|--------------------------------|
G|---------------------------------|--------------------------------|
D|---------------------------------|--------------------------------|(x4)
A|---------------------------------|----------------------8-------7-|
E|0----------0--0-0----------------|---0--0-0-----------------------|
A|1----------1--1-1----------------|---1--1-1-------4-/5----5-\4----|
  PM-|       PM-----|                  PM-----|


[Pre-Verse Part 1]
(Guitar 1)
e|--------------------------------|--------------------------------|
B|--------------------------------|--------------------------------|
G|--------------------------------|--------------------------------|
D|--------------------------------|--------------------------------|
A|--------------------------------|--------------------8-8-----7-7-|
E|6\5---5---6\5---5---5---6\5---5-|--6\5---5---5-------------------|
A|5\4---4---5\4---4---4---5\4---4-|--5\4---4---4---5-5-----4-4-----|
                                                   PM-|    PM-|

(Guitar 2)
e|--------------------------------|------------------------------------|
B|--------------------------------|------------------------------------|
G|--------------------------------|------------------------------------|
D|--------------------------------|------------------------------------|
A|--------------------------------|--------------------11-11-----10-10-|
E|--------------------------------|------------------------------------|
A|--------------------------------|----------------8-8-------7-7-------|
                                                   PM-|      PM-|

(Guitar 1)        I   REJECT
e|--------------------------------|
B|--------------------------------|
G|--------------------------------|
D|--------------------------------|
A|--------------------------------|
E|6\5---5---6\5---0---0-----------|
A|5\4---4---5\4---1---1-----------|
                  PM------|

(Guitar 2)        I   REJECT
e|--------------------------------|
B|--------------------------------|
G|--------------------------------|
D|--------------------------------|
A|--------------------------------|
E|----------------0---0-----------|
A|----------------1---1-----------|
                  PM-----|

[Verse]
(Guitar 1 and 2)
e|--------------------------------|--------------------------------|
B|--------------------------------|--------------------------------|
G|--------------------------------|--------------------------------|
D|--------------------------------|--------------------------------|
A|--------------------------------|--------------------8-8-----7-7-|
E|6\5---5---6\5---5---5-----------|--------------------------------|
A|5\4---4---5\4---4---4---1-4-0-5-|4-0-1-4-0-5-4---5-5-----4-4-----|
                          PM--------------------|  PM-|    PM-|

e|--------------------------------|--------------------------------|
B|--------------------------------|--------------------------------|
G|--------------------------------|--------------------------------|
D|--------------------------------|--------------------------------|
A|--------------------------------|5-4---4---------8-8-----7-7-----|
E|6\5---5---6\5---5---5---5---4---|----6---6-5-6-3-----------------|
A|5\4---4---5\4---4---4---5---4---|--------------------5-5-----4-4-|
                                                       PM-|    PM-|

(Guitar 1)
e|--------------------------------|--------------------------------|
B|--------------------------------|--------------------------------|
G|--------------------------------|--------------------------------|
D|--------------------------------|--------------------------------|
A|--------------------------------|--------------------8-8-----7-7-|
E|6\5---5---6\5---5---5-----------|--------------------------------|
A|5\4---4---5\4---4---4---1-4-0-5-|4-0-1-4-0-5-4---5-5-----4-4-----|
                          PM--------------------|  PM-|    PM-|

e|--------------------------------|--------------------------------|
B|--------------------------------|--------------------------------|
G|--------------------------------|--------------------------------|
D|--------------------------------|--------------------------------|
A|--------------------------------|5-4---4---------8-8-----7-7-----|
E|6\5---5---6\5---5---5---5---4---|----6---6-5-6-3-----------------|
A|5\4---4---5\4---4---4---5---4---|--------------------5-5-----4-4-|
                                                       PM-|    PM-|

(Guitar 2)
e|--------------------------------|------------------------------------|
B|--------------------------------|------------------------------------|
G|--------------------------------|------------------------------------|
D|--------------------------------|------------------------------------|
A|--------------------------------|--------------------11-11-----10-10-|
E|6\5---5---6\5---5---5-----------|------------------------------------|
A|5\4---4---5\4---4---4---1-4-0-5-|4-0-1-4-0-5-4---8-8-------7-7-------|
                          PM--------------------|  PM-|      PM-|

e|--------------------------------|------------------------------------|
B|--------------------------------|------------------------------------|
G|--------------------------------|------------------------------------|
D|--------------------------------|------------------------------------|
A|--------------------------------|8-7---7---------11-11-----10-10-----|
E|6\5---5---6\5---5---5---5---4---|----9---9-8-9-6---------------------|
A|5\4---4---5\4---4---4---5---4---|----------------------8-8-------7-7-|
                                                         PM-|      PM-|


[Interlude 1]
(Guitar 1 and 2)
e|------------------------------------|---------------------------------------|
B|------------------------------------|---------------------------------------|
G|------------------------------------|---------------------------------------|
D|7-7-7-7--7-7-7-7--7-7-7-7--5-5-7-7--|8-8-8-8--8-8-8-8--8-8-8-8--11-11-8--8--|
A|------------------------------------|---------------------------------------|
E|5-5-5-5--5-5-5-5--5-5-5-5--3-3-5-5--|6-6-6-6--6-6-6-6--6-6-6-6--9--9--6--6--|
A|------------------------------------|---------------------------------------|

e|------------------------------------|---------------------------------------|
B|------------------------------------|---------------------------------------|
G|------------------------------------|---------------------------------------|
D|7-7-7-7--7-7-7-7--7-7-7-7--5-5-7-7--|8-8-8-8--8-8-8-8--12-12-12-12--11------|
A|------------------------------------|---------------------------------------|
E|5-5-5-5--5-5-5-5--5-5-5-5--3-3-5-5--|6-6-6-6--6-6-6-6--10-10-10-10--9-------|
A|------------------------------------|---------------------------------------|


[Verse Part 2]
(Guitar 1 and 2)
e|--------------------------------|--------------------------------|
B|--------------------------------|--------------------------------|
G|--------------------------------|--------------------------------|
D|8---7---------------------------|--------------------------------|
A|--------------------------------|--------------------------------|
E|6---5---------------------------|6\5---5---6\5---5---5---1---4---|
A|--------1-4-0-5-4-0-1-0-4/5\4---|5\4---4---5\4---4---4---1---4---|
          PM-------------------|                           PM-----|

e|--------------------------------|----------------------------------|
B|--------------------------------|----------------------------------|
G|10--9---------------------------|----------------------------------|
D|--------------------------------|----------------------------------|
A|8---7---------------------------|--------------------6-6-----11-11-|
E|--------------------------------|6\5---5---6\5---------------------|
A|--------1-4-0-5-4-0-1-0-4/5\4---|5\4---4---5\4---4-4-----8-8-------|
          PM-------------------|                   PM-|    PM-|


[Interlude 2]
(Guitar 1)
e|------------------------------------|---------------------------------------|
B|------------------------------------|---------------------------------------|
G|------------------------------------|---------------------------------------|
D|7-7-7-7--7-7-7-7--7-7-7-7--5-5-7-7--|8-8-8-8--8-8-8-8--8-8-8-8--11-11-8--8--|
A|------------------------------------|---------------------------------------|
E|5-5-5-5--5-5-5-5--5-5-5-5--3-3-5-5--|6-6-6-6--6-6-6-6--6-6-6-6--9--9--6--6--|
A|------------------------------------|---------------------------------------|

           WE WILL  ALL                DIE      FOR      NOTHING
e|------------------------------------|---------------------------------------|
B|------------------------------------|---------------------------------------|
G|------------------------------------|---------------------------------------|
D|7-7-7-7--7-7-7-7--7-7-7-7--5-5-7-7--|8-8-8-8--8-8-8-8-----------------------|
A|------------------------------------|---------------------------------------|
E|5-5-5-5--5-5-5-5--5-5-5-5--3-3-5-5--|6-6-6-6--6-6-6-6--0--------------------|
A|------------------------------------|------------------1--------------------|
                                                         PM

(Guitar 2)
e|----------------------------------------------------|----------------------------------------------------|
B|----------------------------------------------------|----------------------------------------------------|
G|----------------------------------------------------|----------------------------------------------------|
D|19-19-19-19--19-19-19-19--19-19-19-19--17-17-19-19--|20-20-20-20--20-20-20-20--20-20-20-20--23-23-20-20--|
A|----------------------------------------------------|----------------------------------------------------|
E|17-17-17-17--17-17-17-17--17-17-17-17--15-15-17-17--|18-18-18-18--18-18-18-18--18-18-18-18--21-21-18-18--|
A|----------------------------------------------------|----------------------------------------------------|

               WE    WILL   ALL                        DIE          FOR          NOTHING
e|----------------------------------------------------|----------------------------------------------------|
B|----------------------------------------------------|----------------------------------------------------|
G|----------------------------------------------------|----------------------------------------------------|
D|19-19-19-19--19-19-19-19--19-19-19-19--17-17-19-19--|20-20-20-20--20-20-20-20----------------------------|
A|----------------------------------------------------|----------------------------------------------------|
E|17-17-17-17--17-17-17-17--17-17-17-17--15-15-17-17--|18-18-18-18--18-18-18-18--0-------------------------|
A|----------------------------------------------------|--------------------------1-------------------------|
                                                                                 PM

[Breakdown 1]
(Guitar 1 and 2)
e|---------------------------------|--------------------------------|
B|---------------------------------|--------------------------------|
G|---------------------------------|--------------------------------|
D|---------------------------------|--------------------------------|
A|---------------------------------|--------------------------------|
E|0-0-0-0-0-0-0-0--0-0-----0-0-----|0-0-0-0-0-0---0-0-0-0-0---0-0-0-|
A|1-1-1-1-1-1-1-1--1-1-----1-1-----|1-1-1-1-1-1---1-1-1-1-1---1-1-1-|
  PM------------------|    PM-|     PM---------|  PM-------|  PM---|  

e|---------------------------------|--------------------------------|
B|---------------------------------|--------------------------------|
G|---------------------------------|--------------------------------|
D|---------------------------------|--------------------------------|
A|---------------------------------|5-4---4---------8-8-----7-7-----|
E|----0-0-0-0-0-0--0-0-----0-0-----|----6---6-5-6-3-----------------|
A|1p0-1-1-1-1-1-1--1-1-----1-1-----|--------------------5-5-----4-4-|
      PM--------------|    PM-|                         PM-|    PM-|

(Guitar 1)
e|---------------------------------|--------------------------------|
B|---------------------------------|--------------------------------|
G|---------------------------------|--------------------------------|
D|---------------------------------|--------------------------------|
A|---------------------------------|--------------------------------|
E|0-0-0-0-0-0-0-0--0-0-------------|0-0-0-0-0-0---0-0-0-0-0---0-0-0-|
A|1-1-1-1-1-1-1-1--1-1-------------|1-1-1-1-1-1---1-1-1-1-1---1-1-1-|
  PM------------------|             PM---------|  PM-------|  PM---|

(Guitar 2)
e|---------------------------------|--------------------------------|
B|---------------------------------|--------------------------------|
G|---------------------------------|--------------------------------|
D|---------------------------------|--------------------------------|
A|---------------------------------|--------------------------------|
E|0-0-0-0-0-0-0-0--0-0-----0-0-----|0-0-0-0-0-0---0-0-0-0-0---0-0-0-|
A|1-1-1-1-1-1-1-1--1-1-----1-1-----|1-1-1-1-1-1---1-1-1-1-1---1-1-1-|
  PM------------------|    PM-|     PM---------|  PM-------|  PM---|

(Guitar 1 and 2)
e|---------------------------------|---------------------------------|
B|---------------------------------|---------------------------------|
G|---------------------------------|---------------------------------|
D|---------------------------------|---------------------------------|
A|---------------------------------|5-4---4--------------------------|
E|----0-0-0-0-0-0--0-0-----0-0-----|----6---6-5-6-3-5--4--1--4--1--0-|
A|1p0-1-1-1-1-1-1--1-1-----1-1-----|----------------5--4--1--4--1--0-|
      PM--------------|    PM-|                     PM--------------|


[Hook 2]
(Guitar 1)                             1st Ending
e|------------------------------------|------------------------------------|
B|------17----17----17----17----17----|------17----17----18----18----18----|
G|------------------------------------|------------------------------------|
D|14/15----15----15----15----15----15-|14/15----15----15----15----15----15-|
A|------------------------------------|------------------------------------|
E|------------------------------------|------------------------------------|
A|------------------------------------|------------------------------------|

  2nd Ending
e|------------------------------------|
B|------17----17----14----14-14----15-|
G|------------------------------------|
D|14/15----15----15----15-------15----|(x2)
A|------------------------------------|
E|------------------------------------|
A|------------------------------------|

(Guitar 2)
e|---------------------------------|--------------------------------|
B|---------------------------------|--------------------------------|
G|---------------------------------|--------------------------------|
D|---------------------------------|--------------------------------|
A|---------------------------------|--------------------------------|
E|0----------0--0-0----------------|---0--0-0--------0-0-0--0--0--0-|
A|1----------1--1-1----------------|---1--1-1--------1-1-1--1--1--1-|
  PM-|       PM-----|                  PM-----|      PM------------|

e|---------------------------------|--------------------------------|
B|---------------------------------|--------------------------------|
G|---------------------------------|--------------------------------|
D|---------------------------------|--------------------------------|
A|---------------------------------|----------------------8-------7-|
E|0----------0--0--0---------------|---0--0--0----------------------|
A|1----------1--1--1---------------|---1--1--1------4-/5----5-\4----|
  PM-|       PM-----|                  PM-----|

e|---------------------------------|--------------------------------|
B|---------------------------------|--------------------------------|
G|---------------------------------|--------------------------------|
D|---------------------------------|--------------------------------|
A|---------------------------------|--------------------------------|
E|0----------0--0-0---4-/5\4--0--0-|---0--0-0--------0-0-0--0--0--0-|
A|1----------1--1-1-----------0--0-|---1--1-1--------1-1-1--1--1--1-|
  PM-|       PM-----|         PM--|    PM-----|      PM------------|

e|---------------------------------|--------------------------------|
B|---------------------------------|--------------------------------|
G|---------------------------------|--------------------------------|
D|---------------------------------|--------------------------------|
A|---------------------------------|----------------------8-------7-|
E|0----------0--0-0----------------|---0--0-0-----------------------|
A|1----------1--1-1----------------|---1--1-1-------4-/5----5-\4----|
  PM-|       PM-----|                  PM-----|


[Solo]
(Guitar 1)
e|--------------------------------|--------------------------------|----------------|----------------|
B|--------------------------------|--------------------------------|----------------|----------------|
G|--------------------------------|--------------------------------|----------------|----------------|
D|--------------------------------|--------------------------------|----------------|----------------|(x4)
A|--------------------------------|--------------------------------|----------------|----------------|
E|--------------------------------|--------------------------------|----------------|----------------|
A|7N----------------------5N------|8N--------------------7N----5N--|4N--------------|4N--------------|


e|--------------------------------|--------------------------------|
B|--------------------------------|--------------------------------|
G|--------------------------------|--------------------------------|
D|7-------------------------------|7-------------------------------|
A|7-------------------------------|7-------------------------------|
E|5-------------------------------|4-------------------------------|
A|5-------------------------------|4-------------------------------|


(Guitar 2)
e|----------------|----------------|----------------|----------------|---------------------|
B|----------------|----------------|----------------|----------------|--------------10-----|
G|-------------12-|14-------12--10-|15---15--14--12-|11g12---9g10--9\|8~------7-9-7----7-9~|
D|----12-14-15----|----------------|----------------|----------------|---------------------|
A|----------------|----------------|----------------|----------------|---------------------|
E|----------------|----------------|----------------|----------------|---------------------|
A|----------------|----------------|----------------|----------------|---------------------|

e|-------------------------|--------------------------------|---------------|-------------------|
B|----------------14-------|--------------------------14-15-|14b15--r14-----|-------------------|
G|(9)~--12-14-12----12-14~-|-----------------12-14-15-------|------------12-|14----------12-14--|
D|-------------------------|--------12-14-15----------------|---------------|---12-14-15--------|
A|-------------------------|--------------------------------|---------------|-------------------|
E|-------------------------|--------------------------------|---------------|-------------------|
A|-------------------------|--------------------------------|---------------|-------------------|

e|-------------13-15-17-18-|21b22---21~------------------15-17-|18-17-15--13----------------------------|
B|---14-15-17--------------|-------------------15-17--18-------|-------------18-17--15-18-17--15--------|
G|15-----------------------|----------------18-----------------|---------------------------------15-14--|
D|-------------------------|-----------------------------------|----------------------------------------|
A|-------------------------|-----------------------------------|----------------------------------------|
E|-------------------------|-----------------------------------|----------------------------------------|
A|-------------------------|-----------------------------------|----------------------------------------|

e|----------------------------------------|------------------------------------------|----------------|
B|----------------------------------------|------------------------------------------|----------------|
G|12-15-14--12-----------14-12------------|------------------------------------------|----------------|
D|-------------15-14--12--------15-14-12--|11-14-12--11------------------------------|------------12--|
A|----------------------------------------|-------------13-12--10-13-12--10----------|----------------|
E|----------------------------------------|---------------------------------13-12-10-|9---------------|
A|----------------------------------------|------------------------------------------|----------------|

e|-----------------------|----------------|---------9-----------------9-12-9-|--------------------|
B|-----------------------|----------------|-----11----11----------11---------|----------14-15-17--|
G|----------------15--14-|12b14-----------|9-12----------12--9-12------------|12-14-15------------|
D|11---------------------|-----------8-11-|----------------------------------|--------------------|
A|-----13--12-10---------|----------------|----------------------------------|--------------------|
E|-----------------------|----------------|----------------------------------|--------------------|
A|-----------------------|----------------|----------------------------------|--------------------|

e|--------------------------------|15-13-----------------------------|----------------|------------------|
B|17b18-------15------------------|------15-14\11-10-----------------|8/10~-------/11-|9b10---r9---------|
G|----------------14~-------------|------------------12-10-----------|----------------|----------9~------|
D|--------------------------------|------------------------12-11\8-7-|----------------|------------------|
A|--------------------------------|----------------------------------|----------------|------------------|
E|--------------------------------|----------------------------------|----------------|------------------|
A|--------------------------------|----------------------------------|----------------|------------------|


[Hook 3]
(Guitar 1)                             1st, 3rd Ending
e|------------------------------------|------------------------------------|
B|------17----17----17----17----17----|------17----17----18----18----18----|
G|------------------------------------|------------------------------------|
D|14/15----15----15----15----15----15-|14/15----15----15----15----15----15-|
A|------------------------------------|------------------------------------|
E|------------------------------------|------------------------------------|
A|------------------------------------|------------------------------------|

  2nd Ending                           4th Ending
e|------------------------------------|------------------------------------|
B|------17----17----14----14-14----14-|------17----17----------------------|
G|------------------------------------|------------------------------------|
D|14/15----15----15----15-------15----|14/15----15----15-------------------|
A|------------------------------------|------------------------------------|
E|------------------------------------|------------------------------------|
A|------------------------------------|------------------------------------|

(Guitar 2)
e|---------------------------------|--------------------------------|
B|---------------------------------|--------------------------------|
G|---------------------------------|--------------------------------|
D|---------------------------------|--------------------------------|(x3)
A|---------------------------------|--------------------------------|
E|0----------0--0-0----------------|---0--0-0--------0-0-0--0--0--0-|
A|1----------1--1-1----------------|---1--1-1--------1-1-1--1--1--1-|
  PM-|       PM-----|                  PM-----|      PM------------|

  FIRING BULLETS THROUGH THE SKULLS OF THE CHILDREN
e|---------------------------------|--------------------------------|
B|---------------------------------|--------------------------------|
G|---------------------------------|--------------------------------|
D|---------------------------------|--------------------------------|
A|---------------------------------|--------------------------------|
E|0----------0--0-0----------------|---0--0-0-----------------------|
A|1----------1--1-1----------------|---1--1-1-----------------------|
  PM-|       PM-----|                 PM-----|


[Outro Breakdown]
(Guitar 1)
e|---------------------------------|--------------------------------|
B|---------------------------------|--------------------------------|
G|---------------------------------|--------------------------------|
D|---------------------------------|--------------------------------|(x7)
A|---------------------------------|--------------------------------|
E|0----------0--0-0----------------|---0--0-0--------0-0-0--0--0--0-|
A|1----------1--1-1----------------|---1--1-1--------1-1-1--1--1--1-|
  PM-|       PM-----|                  PM-----|      PM------------|

e|---------------------------------|--------------------------------|
B|---------------------------------|--------------------------------|
G|---------------------------------|--------------------------------|
D|---------------------------------|--------------------------------|
A|---------------------------------|----------------------8-------7-|
E|0----------0--0-0----------------|---0--0-0-----------------------|
A|1----------1--1-1----------------|---1--1-1-------4-/5----5-\4----|
  PM-|       PM-----|                  PM-----|

(Guitar 2)
e|--------------------------|
B|--------------------------|
G|--------------------------|
D|--------------------------|(x8)
A|--------------------------|
E|0-0-0-0-0-0--0-0-0-0-0-0--|
A|1-1-1-1-1-1--1-1-1-1-1-1--|
  PM-----------------------|

e|---------------------------------|--------------------------------|
B|---------------------------------|--------------------------------|
G|---------------------------------|--------------------------------|
D|---------------------------------|--------------------------------|(x2)
A|---------------------------------|--------------------------------|
E|0----------0--0-0----------------|---0--0-0--------0-0-0--0--0--0-|
A|1----------1--1-1----------------|---1--1-1--------1-1-1--1--1--1-|
  PM-|       PM-----|                  PM-----|      PM------------|

e|--------------------------|
B|--------------------------|
G|--------------------------|
D|--------------------------|(x7)
A|--------------------------|
E|0-0-0-0-0-0--0-0-0-0-0-0--|
A|1-1-1-1-1-1--1-1-1-1-1-1--|
  PM-----------------------|

e|---------------|
B|---------------|
G|---------------|
D|---------------|
A|------8------7-|
E|---------------|
A|4-/5----5-\4---|

************************************

| (n) Ghost note
| r   Release
| b   Bend
| /   Slide up
| \   Slide down
| ~   Vibrato
| PM  Palm mute
| N   Tremolo

************************************
Suggest correction
Creating personal tab
Creating personal tab
You can edit any tab online and save it as your Personal.

You can edit, replace or remove any tab part or add personal notes – all changes will be seen only by you.

Personal tabs can be accessed anytime from any device, even offline.
Learn more »
Give kudos to tab author, rate the tab!
1 2 3 4 5
comments
print report bad tab
guest
You may want to rate the tab now too:
select rating
Wanna post a correction for this tab? Suggest correction