Oops, an error
Loading. Please wait.

Light Bearer tab

559 views 36 this week
1 commentread comment
1 2 3 4 5
x 4
add to favorites
×
Save as Personal and add changes to this tab that will be seen only by you. Learn more ›
×
You can save this tab as Personal to edit and correct it or add notes. All changes will be seen only by you. Learn more »
launch autoscroll
font size
0
reset
how to read this tab
guitar tuner
edit
Autoscroll
slow
fast
+/-
esc
set tempo
stop
About this tab version
This is Light Bearer by Thy Art is Murder. The timing is a straightforward 4/4 time, and it has a key of A Phyrgian Dominant. Was this info helpful? Yes No
Tuning = Seven String Drop A (AEADGBe)

[Hook 1]
(Guitar 1 and 2)
e|--------------------------------|--------------------------------|
B|--------------------------------|--------------------------------|
G|3-------4-----------------------|3-------------------------------|
D|3-------4-----------------------|3-------------------------------|(x8)
A|1-------2-----------1---2---1---|2-------------------------------|
E|1-------2-----------1---2---1---|1-------------------------------|
A|1-------2-----------1---2---1---|1-------------------------------|
                      PM---------|

[Verse 1 Part 1]
(Guitar 1)
e|-------------------------------|--------------------------------|
B|-------------------------------|--------------------------------|
G|-------------------------------|--------------------------------|
D|-------------------------------|--------------------------------|
A|-------------------------------|--------------------------------|
E|--------1-1-----2-2------------|1-1-----2-2-----1-1-----4-4-----|
A|1-1-2-2-----2-2----2-2-1-1-2-2-|----2-2-----2-2-----2-2-----5-5-|
  PM-----|    PM-|   PM---------|     PM-|    PM-|    PM-|    PM-|

e|--------------------------------|-------------------------------|
B|--------------------------------|-------------------------------|
G|--------------------------------|-------------------------------|
D|--------------------------------|---------------3-------6-------|
A|--------------------------------|x\-------------1-------4-------|
E|--------1-1-----2-2-------------|x\-------------1-------4-------|
A|1-1-2-2-----2-2-----2-2-1-1-2-2-|x\-----------------------------|
  PM-----|    PM-|    PM---------| Pick Slide

(Guitar 2)
e|--------------------------------|----------------|--------------------------------|------------------------|
B|--------------------------------|----------------|--------------------------------|------------------------|
G|--------------------------------|----------------|--------------------------------|------------------------|
D|--------------------------------|----------------|--------------------------------|--------3-------6-------|
A|--------------------------------|----------------|--------------------------------|x\------1-------4-------|
E|1-1---------------------1-1-1-1-|----------------|1-1---------------------1---1---|x\------1-------4-------|
A|1-1---------------------1-1-1-1-|----------------|1-1---------------------1---1---|x\----------------------|
  PM-|                    PM-----|                  PM-|                    PM-----| Pick Slide

[Verse 1 Part 2]
(Guitar 1)
e|--------------------------------|--------------------------------|
B|--------------------------------|--------------------------------|
G|--------------------------------|--------------------------------|
D|--------------------------------|--------------------------------|
A|--------------------------------|--------------------------------|
E|--------1-1-----2-2-------------|1-1-----2-2-----1-1-----4-4-----|
A|1-1-2-2-----2-2-----2-2-1-1-2-2-|----2-2-----2-2-----2-2-----5-5-|
  PM-----|    PM-|   PM---------|      PM-|    PM-|    PM-|    PM-|

e|--------------------------------|--------------------------------|
B|--------------------------------|--------------------------------|
G|--------------------------------|--------------------------------|
D|--------------------------------|--------------------------------|(x2)
A|--------------------------------|--------------------------------|
E|--------1-1-----2-2-------------|1-1-----2-2-----4-4-----5-5-----|
A|1-1-2-2-----2-2-----2-2-1-1-2-2-|----2-2-----2-2-----5-5-----6-6-|
  PM-----|    PM-|   PM---------|      PM-|    PM-|    PM-|    PM-|

(Guitar 2)
e|--------------------------------|--------------------------------|
B|--------------------------------|--------------------------------|
G|--------------------------------|--------------------------------|
D|--------------------------------|--------------------------------|
A|--------------------------------|--------------------------------|
E|--------1-1-----2-2-------------|1-1-----2-2-----1-1-----4-4-----|
A|1-1-2-2-----2-2-----2-2-1-1-2-2-|----2-2-----2-2-----2-2-----5-5-|
  PM-----|    PM-|   PM---------|      PM-|    PM-|    PM-|    PM-|

e|--------------------------------|--------------------------------|
B|--------------------------------|--------------------------------|
G|--------------------------------|--------------------------------|
D|--------------------------------|--------------------------------|
A|--------------------------------|--------------------------------|
E|--------1-1-----2-2-------------|1-1-----2-2-----4-4-----5-5-----|
A|1-1-2-2-----2-2-----2-2-1-1-2-2-|----2-2-----2-2-----5-5-----6-6-|
  PM-----|    PM-|   PM---------|      PM-|    PM-|    PM-|    PM-|

e|--------------------------------|--------------------------------|
B|--------------------------------|--------------------------------|
G|--------------------------------|--------------------------------|
D|--------------------------------|--------------------------------|
A|--------------------------------|--------------------------------|
E|--------1-1-----2-2-------------|1-1-----2-2-----4-4-----5-5-----|
A|1-1-2-2-----2-2-----2-2-1-1-2-2-|----2-2-----2-2-----5-5-----6-6-|
  PM-----|    PM-|   PM---------|      PM-|    PM-|    PM-|    PM-|

e|--------------------------------|--------------------------------|
B|--------------------------------|--------------------------------|
G|--------------------------------|--------------------------------|
D|--------------------------------|--------------------------------|
A|--------------------------------|--------------------------------|
E|--------1-1-----2-2-------------|1-1-----2-2-----7-7-----8-8-----|
A|1-1-2-2-----2-2-----2-2-1-1-2-2-|----2-2-----2-2-----8-8-----9-9-|
  PM-----|    PM-|   PM---------|      PM-|    PM-|    PM-|    PM-|


[Verse 1 Part 3]
(Guitar 1 and 2)
e|--------------------------------|--------------------------------|
B|--------------------------------|--------------------------------|
G|--------------------------------|--------------------------------|
D|--------------------------------|--------------------------------|
A|2---2-----------4---2---1---2---|----4---2-----------2-------1---|
E|2---2-----------4---2---1---2---|----4---2-----------2-------1---|
A|2---2-----------4---2---1---2---|----4---2-----------2-------1---|
  PM-----|        PM-------------|     PM------|       PM      PM

e|--------------------------------|----------------------------------------|
B|--------------------------------|----------------------------------------|
G|--------------------------------|----------------------------------------|
D|--------------------------------|----------------------------12-15-------|
A|2---2-----------4---2---1---2---|----4---2---2---------11-14-------11-14-|
E|2---2-----------4---2---1---2---|----4---2---2---10-13-------------------|
A|2---2-----------4---2---1---2---|----4---2---2---------------------------|
  PM-----|        PM-------------|     PM---------|

(Guitar 1)
e|--------------------------------|--------------------------------|
B|--------------------------------|--------------------------------|
G|--------------------------------|--------------------------------|
D|--------------------------------|--------------------------------|
A|2---2---4/5\4---4---2---1---2---|2---4---2---2---1---2---1---2---|
E|2---2---4/5\4---4---2---1---2---|2---4---2---2---1---2---1---2---|
A|2---2---4/5\4---4---2---1---2---|2---4---2---2---1---2---1---2---|
                  PM----------------------------------------------|

e|--------------------------------|----------------------------------------|
B|--------------------------------|----------------------------------------|
G|--------------------------------|----------------------------------------|
D|--------------------------------|----------------------------12-15-------|
A|2---2---4/5\4---4---2---1---2---|2---4---2---2---------11-14-------11-14-|
E|2---2---4/5\4---4---2---1---2---|2---4---2---2---10-13-------------------|
A|2---2---4/5\4---4---2---1---2---|2---4---2---2---------------------------|
                  PM------------------------------|

(Guitar 2)
e|--------------------------------|--------------------------------|
B|--------------------------------|--------------------------------|
G|--------------------------------|--------------------------------|
D|--------------------------------|--------------------------------|
A|2---2---4/5\4---4---2---1---2---|2---4---2---2---1---2---1---2---|
E|2---2---4/5\4---4---2---1---2---|2---4---2---2---1---2---1---2---|
A|2---2---4/5\4---4---2---1---2---|2---4---2---2---1---2---1---2---|
                  PM----------------------------------------------|

e|--------------------------------|----------------------------------------|
B|--------------------------------|----------------------------------------|
G|--------------------------------|----------------------------------------|
D|--------------------------------|----------------------------15-18-------|
A|2---2---4/5\4---4---2---1---2---|2---4---2---2---------14-17-------14-17-|
E|2---2---4/5\4---4---2---1---2---|2---4---2---2---13-16-------------------|
A|2---2---4/5\4---4---2---1---2---|2---4---2---2---------------------------|
                  PM------------------------------|

[Verse 1 Part 4]
(Guitar 1 and 2)
e|--------------------------------|-------------------------------|
B|--------------------------------|-------------------------------|
G|--------------------------------|-------------------------------|
D|--------------------------------|-------------------------------|(x2)
A|--------------------------------|-------------------------------|
E|5-5-----6-6-------------5-5-----|6-6----------------------------|
A|----4-4-----5-5-1-1-1-1-----4-4-|----5-5-1-1-1-1-2-2-1-1-4-4-4-4|
      PM-|    PM-|            PM-|     PM-|

e|--------------------------------|-------------------------------|
B|--------------------------------|-------------------------------|
G|--------------------------------|-------------------------------|
D|--------------------------------|-------------------------------|
A|--------------------------------|----------------2---1---5/-----|
E|5-5-----6-6-------------5-5-----|6-6-------------2---1---5/-----|
A|----4-4-----5-5-1-1-1-1-----4-4-|----5-5-1-1-1-1-2---1---5/-----|
      PM-|    PM-|            PM-|     PM-|

(Guitar 1)
e|--------------------------------|-------------------------------|
B|--------------------------------|-------------------------------|
G|--------------------------------|-------------------------------|
D|--------------------------------|-------------------------------|(x2)
A|--------------------------------|-------------------------------|
E|5-5-----6-6-------------5-5-----|6-6----------------------------|
A|----4-4-----5-5-1-1-1-1-----4-4-|----5-5-1-1-1-1-2-2-1-1-4-4-4-4|
      PM-|    PM-|            PM-|     PM-|

e|--------------------------------|-------------------------------|
B|--------------------------------|-------------------------------|
G|--------------------------------|-------------------------------|
D|--------------------------------|-------------------------------|
A|--------------------------------|----------------2---1---5/-----|
E|5-5-----6-6-------------5-5-----|6-6-------------2---1---5/-----|
A|----4-4-----5-5-1-1-1-1-----4-4-|----5-5-1-1-1-1-2---1---5/-----|
      PM-|    PM-|            PM-|     PM-|

(Guitar 2)
e|--------------------------------|-------------------------------|
B|--------------------------------|-------------------------------|
G|--------------------------------|-------------------------------|
D|--------------------------------|-------------------------------|(x2)
A|--------------------------------|-------------------------------|
E|8-8-----9-9-------------8-8-----|9-9----------------------------|
A|----7-7-----8-8-1-1-1-1-----7-7-|----8-8-1-1-1-1-2-2-1-1-4-4-4-4|
      PM-|    PM-|            PM-|     PM-|

e|--------------------------------|-------------------------------|
B|--------------------------------|-------------------------------|
G|--------------------------------|-------------------------------|
D|--------------------------------|-------------------------------|
A|--------------------------------|----------------2---1---5/-----|
E|5-5-----6-6-------------5-5-----|6-6-------------2---1---5/-----|
A|----4-4-----5-5-1-1-1-1-----4-4-|----5-5-1-1-1-1-2---1---5/-----|
      PM-|    PM-|            PM-|     PM-|

[Hook 2]
(Guitar 1 and 2)
e|--------------------------------|--------------------------------|
B|--------------------------------|--------------------------------|
G|3-------4-----------------------|3-------------------------------|
D|3-------4-----------------------|3-------------------------------|(x3)
A|1-------2-----------1---2---1---|2-------------------------------|
E|1-------2-----------1---2---1---|1-------------------------------|
A|1-------2-----------1---2---1---|1-------------------------------|
                      PM---------|

e|--------------------------------|--------------------------------|
B|--------------------------------|--------------------------------|
G|3-------4-----------------------|3-------------------------------|
D|3-------4-----------------------|3-------------------------------|
A|1-------2-----------1---2---1---|2-------------------------------|
E|1-------2-----------1---2---1---|1-------------------------------|
A|1-------2-----------1---2---1---|1--------------------------10\--|
                      PM---------|

[Verse 2]
(Guitar 1 and 2)
e|--------------------------------|--------------------------------|
B|--------------------------------|--------------------------------|
G|--------------------------------|--------------------------------|
D|--------------------------------|--------------------------------|
A|--------------------------------|--------------------------------|
E|--------1-1-----2-2-------------|1-1-----2-2-----1-1-----4-4-----|
A|1-1-2-2-----2-2-----2-2-1-1-2-2-|----2-2-----2-2-----2-2-----5-5-|
  PM-----|    PM-|    PM---------|     PM-|    PM-|    PM-|    PM-|

e|--------------------------------|--------------------------------|
B|--------------------------------|--------------------------------|
G|--------------------------------|--------------------------------|
D|--------------------------------|--------------------------------|
A|--------------------------------|--------------------------------|
E|--------1-1-----2-2-------------|1-1-----2-2-----4-4-----5-5-----|
A|1-1-2-2-----2-2-----2-2-1-1-2-2-|----2-2-----2-2-----5-5-----6-6-|
  PM-----|    PM-|    PM---------|     PM-|    PM-|    PM-|    PM-|

e|--------------------------------|--------------------------------|
B|--------------------------------|--------------------------------|
G|--------------------------------|--------------------------------|
D|--------------------------------|--------------------------------|
A|--------------------------------|--------------------------------|
E|--------1-1-----2-2-------------|1-1-----2-2-----1-1-----4-4-----|
A|1-1-2-2-----2-2-----2-2-1-1-2-2-|----2-2-----2-2-----2-2-----5-5-|
  PM-----|    PM-|    PM---------|     PM-|    PM-|    PM-|    PM-|

e|--------------------------------|--------------------------------|
B|--------------------------------|--------------------------------|
G|--------------------------------|--------------------------------|
D|--------------------------------|--------------------------------|
A|--------------------------------|------3---------------3---------|
E|--------1-1-----2-2-------------|--------------------------------|
A|1-1-2-2-----2-2-----2-2-1-1-2-2-|3-----------3---4---------------|
  PM-----|    PM-|    PM---------| Let Ring

(Guitar 2)
e|--------------------------------|--------------------------------|
B|--------------------------------|--------------------------------|
G|--------------------------------|--------------------------------|
D|--------------------------------|--------------------------------|
A|--------------------------------|--------------------------------|
E|--------1-1-----2-2-------------|1-1-----2-2-----1-1-----4-4-----|
A|1-1-2-2-----2-2-----2-2-1-1-2-2-|----2-2-----2-2-----2-2-----5-5-|
  PM-----|    PM-|    PM---------|     PM-|    PM-|    PM-|    PM-|

e|--------------------------------|--------------------------------|
B|--------------------------------|--------------------------------|
G|--------------------------------|--------------------------------|
D|--------------------------------|--------------------------------|
A|--------------------------------|--------------------------------|
E|--------1-1-----2-2-------------|1-1-----2-2-----7-7-----8-8-----|
A|1-1-2-2-----2-2-----2-2-1-1-2-2-|----2-2-----2-2-----8-8-----9-9-|
  PM-----|    PM-|    PM---------|     PM-|    PM-|    PM-|    PM-|

e|--------------------------------|--------------------------------|
B|--------------------------------|--------------------------------|
G|--------------------------------|--------------------------------|
D|--------------------------------|--------------------------------|
A|--------------------------------|--------------------------------|
E|--------1-1-----2-2-------------|1-1-----2-2-----4-4-----5-5-----|
A|1-1-2-2-----2-2-----2-2-1-1-2-2-|----2-2-----2-2-----5-5-----6-6-|
  PM-----|    PM-|    PM---------|     PM-|    PM-|    PM-|    PM-|

e|--------------------------------|--------------------------------|
B|--------------------------------|--------------------------------|
G|--------------------------------|--------------------------------|
D|--------------------------------|--------------------------------|
A|--------------------------------|------3---------------3---------|
E|--------1-1-----2-2-------------|--------------------------------|
A|1-1-2-2-----2-2-----2-2-1-1-2-2-|3-----------3---4---------------|
  PM-----|    PM-|    PM---------| Let Ring

[Bridge]
(Guitar 1)
e|----------------------------------------|
B|---------------14------------------14---|
G|17---17---17--------17---17---17--------|
D|----------------------------------------|(x7)
A|----------------------------------------|
E|----------------------------------------|
A|----------------------------------------|

e|------------------|
B|-------------14---|
G|17---17---17------|
D|------------------|
A|------------------|
E|------------------|
A|------------------|

(Guitar 2)
e|--------------------------------|--------------------------------|
B|--------------------------------|--------------------------------|
G|--------------------------------|--------------------------------|
D|3-3-3-3-3-3-3-3-3-3-3-3-3-3-3-3-|--------------------------------|(x3)
A|3-3-3-3-3-3-3-3-3-3-3-3-3-3-3-3-|----------------3-3-3-3-2-2-2-2-|
E|1-1-1-1-1-1-1-1-1-1-1-1-1-1-1-1-|3-3-3-3-3-3-3-3-4-4-4-4-0-0-0-0-|
A|----------------3-3-3-3-3-3-3-3-|4-4-4-4-4-4-4-4-----------------|

e|--------------------------------|--------------------------------|
B|--------------------------------|--------------------------------|
G|--------------------------------|--------------------------------|
D|3-3-3-3-3-3-3-3-3-3-3-3-3-3-3-3-|--------------------------------|
A|3-3-3-3-3-3-3-3-3-3-3-3-3-3-3-3-|--------------------------------|
E|1-1-1-1-1-1-1-1-1-1-1-1-1-1-1-1-|3-3-3-3-3-3---------------------|
A|----------------3-3-3-3-3-3-3-3-|4-4-4-4-4-4---------------------|

[Breakdown]
(Guitar 1)
e|----------------------------------|-------------------------------------------|
B|----------------------------------|-------------------------------------------|
G|----------------------------------|-------------------------------------------|
D|----------------------------------|-------------------------------------------|
A|----------------------------------|-------------------------------------------|
E|0---0-0-0---0---0-0-------0-0-0---|---0-0-0---0---0-0-------0-----------------|
A|1---1-1-1---1---1-1-------1-1-1---|---1-1-1---1---1-1-------1-4---------------|
  PM-----------------|      PM-----|    PM-------------|      PM

e|----------------------------------|-------------------------------------------|
B|----------------------------------|-------------------------------------------|
G|----------------------------------|-------------------------------------------|
D|----------------------------------|-------------------------------------------|(x2)
A|----------------------------------|-------------------------------------------|
E|1---1-1-1---1---1-1-------1-1-1---|---1-1-1---1---1-1-------1-----------------|
A|0---0-0-0---0---0-0-------0-0-0---|---0-0-0---0---0-0-------0-4---------------|
  PM-----------------|      PM-----|    PM-------------|      PM

(Guitar 2)
e|--------------------------------|
B|------------2---------------2---|
G|5---5---5-------5---5---5-------|
D|--------------------------------|(x8)
A|--------------------------------|
E|--------------------------------|
A|--------------------------------|

[Outro]
(Guitar 1)
e|----------------------------------------|
B|---------------14------------------14---|
G|17---17---17--------17---17---17--------|
D|----------------------------------------|(x8)
A|----------------------------------------|
E|----------------------------------------|
A|----------------------------------------|

(Guitar 2)
e|--------------------------------|--------------------------------|
B|--------------------------------|--------------------------------|
G|--------------------------------|--------------------------------|
D|3-3-3-3-3-3-3-3-3-3-3-3-3-3-3-3-|--------------------------------|(x3)
A|3-3-3-3-3-3-3-3-3-3-3-3-3-3-3-3-|----------------3-3-3-3-2-2-2-2-|
E|1-1-1-1-1-1-1-1-1-1-1-1-1-1-1-1-|3-3-3-3-3-3-3-3-4-4-4-4-0-0-0-0-|
A|----------------3-3-3-3-3-3-3-3-|4-4-4-4-4-4-4-4-----------------|

e|--------------------------------|--------------------------------|
B|--------------------------------|--------------------------------|
G|--------------------------------|--------------------------------|
D|3-3-3-3-3-3-3-3-----------------|--------------------------------|
A|3-3-3-3-3-3-3-3-----------------|--------------------------------|
E|1-1-1-1-1-1-1-1-3-3-3-3-3-3-3-3-|3-3-3-3-3-3-3-3-----------------|
A|----------------4-4-4-4-4-4-4-4-|4-4-4-4-4-4-4-4-----------------|


************************************

| x   Dead Note
| \   Slide Down
| PM  Palm Mute

************************************

            
            
Suggest correction
Creating personal tab
Creating personal tab
You can edit any tab online and save it as your Personal.

You can edit, replace or remove any tab part or add personal notes – all changes will be seen only by you.

Personal tabs can be accessed anytime from any device, even offline.
Learn more »
comments
print report bad tab
1 comment total.
0 reply
LMBozovich 936 Jun 06, 2017 05:26 PM

Make sure to rate this tab.

guest
You may want to rate the tab now too:
select rating
Wanna post a correction for this tab? Suggest correction