Oops, an error
Loading. Please wait.

Reign Of Darkness tab

version 1
version 1

Whole song

  • This version is based off the version on Tab Pro w... Show more

Interactive

625 views 45 this week
1 commentread comment
1 2 3 4 5
2 more votes to show rating
add to favorites
×
Save as Personal and add changes to this tab that will be seen only by you. Learn more ›
×
You can save this tab as Personal to edit and correct it or add notes. All changes will be seen only by you. Learn more »
launch autoscroll
font size
0
reset
how to read this tab
guitar tuner
edit
Autoscroll
slow
fast
+/-
esc
set tempo
stop
About this tab version
This version is based off the version on Tab Pro written by grigoriadis, with a few adjustments here and there. The song is in a constant 4/4 time, with the same tempo at 136 bpm. Was this info helpful? Yes No
[Intro]
(Guitar 1)
e|------------------|----------------|
B|------------------|----------------|
G|------------------|----------------|
D|------------------|----------------|(x4)
A|------------------|----------------|
E|------5-----6-----|----5---6---5---|
A|4-----------------|0---------------|
  Let Ring

[Intro Breakdown]
(Guitar 1)
e|--------------------|--------------------------------|
B|--------------------|--------------------------------|
G|--------------------|--------------------------------|
D|--------------------|--------------------------------|(x2)
A|--------------------|--------------------------------|
E|0----0-0----0-0-0-0-|-----0-0-0-0---------0---0---0--|
A|1----1-1----1-1-1-1-|-----1-1-1-1---------1---1---1--|
  PM-----------------|      PM-----|        PM-------|

(Guitar 2)                                                                   1st Ending
e|------------------------|------------------------|------------------------|------------------------|
B|10-10-10-10-10-10-10-10-|10-10-10-10-10-10-10-10-|10-10-10-10-10-10-10-10-|10-10-10-10-10-10-10-10-|
G|14-14-14-14-14-14-15-15-|15-15-15-15-15-15-15-15-|15-14-14-14-14-14-14-14-|14-14-14-14-14-14-14-14-|
D|------------------------|------------------------|------------------------|------------------------|
A|------------------------|------------------------|------------------------|------------------------|
E|------------------------|------------------------|------------------------|------------------------|
A|------------------------|------------------------|------------------------|------------------------|

  2nd Ending
e|------------------------|
B|10-10-10-10-10----------|
G|14-14-14-14-14----------|
D|------------------------|
A|------------------------|
E|------------------------|
A|------------------------|

[Verse]
(Guitar 1)
e|--------------------------------|------------------------------|
B|--------------------------------|------------------------------|
G|--------------------------------|------------------------------|
D|--------------------------------|------------------------------|
A|--------------------------------|------------------------------|
E|0-0-0-0-0-0-0-----------0-0-----|0-0-----0-0-----0-0-0-0-0-0---|
A|1-1-1-1-1-1-1-----------1-1-----|1-1-----1-1-----1-1-1-1-1-1---|
  PM-----------|          PM-|     PM-|    PM-|    PM---------|

e|--------------------------------|------------------------------|
B|--------------------------------|------------------------------|
G|--------------------------------|------------------------------|
D|--------------------------------|------------------------------|
A|--------------------------------|------------------------------|
E|0-0---------0-0---------0-0-----|--------0-0-0-0-0---0-0-0-0--0|
A|1-1---------1-1---------1-1-----|--------1-1-1-1-1---1-1-1-1--1|
  PM-|        PM-|        PM-|             PM-------|  PM-------|

e|--------------------------------|------------------------------|
B|--------------------------------|------------------------------|
G|--------------------------------|------------------------------|
D|--------------------------------|------------------------------|
A|--------------------------------|------------------------------|
E|0-0-0-0-0-0-0-----------0-0-----|0-0-----0-0-----0-0-0-0-0-0---|
A|1-1-1-1-1-1-1-----------1-1-----|1-1-----1-1-----1-1-1-1-1-1---|
  PM-----------|          PM-|     PM-|    PM-|    PM---------|

e|--------------------------------|-------------------------------|
B|--------------------------------|-------------------------------|
G|--------------------------------|-------------------------------|
D|--------------------------------|-------------------------------|(x2)
A|--------------------------------|-------------------------------|
E|0-0---------0-0---------0-0-----|--------0-0-0-0-0---0-0-0-0--0-|
A|1-1---------1-1---------1-1-----|--------1-1-1-1-1---1-1-1-1--1-|
  PM-|        PM-|        PM-|             PM-------|  PM--------|

(Guitar 2)
e|------------------------|------------------------|------------------------|------------------------|
B|10-10-10-10-10-10-10-10-|10-10-10-10-10-10-10-10-|10-10-10-10-10-10-10-10-|10-10-10-10-10-10-10-10-|
G|14-14-14-14-14-14-15-15-|15-15-15-15-15-15-15-15-|15-14-14-14-14-14-14-14-|14-14-14-14-14-14-14-14-|
D|------------------------|------------------------|------------------------|------------------------|(x4)
A|------------------------|------------------------|------------------------|------------------------|
E|------------------------|------------------------|------------------------|------------------------|
A|------------------------|------------------------|------------------------|------------------------|

[Pre-Verse]
(Guitar 1 and 2)
e|---------------|--------------------------|--------------------------|--------------------------|
B|---------------|--------------------------|--------------------------|--------------------------|
G|---------------|--------------------------|--------------------------|--------------------------|
D|---------------|--------------------------|--------------------------|--------------------------|
A|0------3---2---|1-------------------------|4---------5-5-5-5-4-4-4-4-|5-------------------------|
E|0------1---1---|1---------1-------4-------|4-------------------------|5---------5-------0---0---|
A|0----0---------|1-----1-4---4-1-4---7-5-8-|4-----4-------------------|5-----5-8---8-5-8-1---1---|
                                                                                          PM-----|
[Verse Part 1]
(Guitar 1 and 2)                   1st Ending                       2nd Ending
e|--------------------------------|--------------------------------|--------------------------------|
B|--------------------------------|--------------------------------|--------------------------------|
G|--------------------------------|--------------------------------|--------------------------------|
D|--------------------------------|--------------------------------|--------------------------------|(x2)
A|--------------------------------|--------------------------------|--------------------------------|
E|--------5-------------------1-1-|1---------------0---1---5---4---|1---------------0---1---4/5\4---|
A|0---1-------1---0---1---0-------|----1---0---1---0---1---5---4---|----1---0---1---0---1---4/5\4---|
                                                   PM-------------|                 PM-----|

[Verse Part 2]
(Guitar 1 and 2)
e|--------------------------------|--------------------------------|
B|--------------------------------|--------------------------------|
G|--------------------------------|--------------------------------|
D|--------7-7-7-7-7-7-7-7-7-7-7-7-|8-8-8-8-8-8-8-8-8-8-8-8-8-8-8-8-|
A|--------------------------------|--------------------------------|
E|--------5-5-5-5-5-5-5-5-5-5-5-5-|6-6-6-6-6-6-6-6-6-6-6-6-6-6-6-6-|
A|0-------------------------------|--------------------------------|

e|-------------------------------------------|--------------------------------------------|
B|-------------------------------------------|--------------------------------------------|
G|-------------------------------------------|--------------------------------------------|
D|-------11-11-11-11-11-11-11-11-11-11-11-11-|12-12-12-12-12-12-12-12-12-12-12-12---------|
A|-------------------------------------------|--------------------------------------------|
E|--------9--9--9--9--9--9--9--9--9--9--9--9-|10-10-10-10-10-10-10-10-10-10-10-10-0---0---|
A|0------------------------------------------|------------------------------------1---1---|
                                                                                   PM-----|

[Breakdown]
(Guitar 1 and 2)                                                      You will see the true face of panic!
e|--------------------------------|----------------------------------|--------------------------------|
B|--------------------------------|----------------------------------|--------------------------------|
G|--------------------------------|----------------------------------|--------------------------------|
D|--------------------------------|----------------------------------|--------------------------------|
A|--------------------------------|----------------------------------|--------------------------------|
E|0---0---0-----------0-------0---|0-----------0-0-0-0-----0-----0---|0-------------------------------|
A|1---1---1-----------1-------1---|1-----------1-1-1-1-----1-----1---|1-------------------------------|
  PM-------|          PM---|  PM-------|       PM------|   PM-|  PM-------|

e|--------------------------------|---------------------------------------|
B|--------------------------------|---------------------------------------|
G|--------------------------------|---------------------------------------|
D|--------------------------------|---------------------------------------|
A|--------------------------------|---------------------------------------|
E|0---0---0-----------0-------0---|0-----------0-0-0-0---0----0-------0---|
A|1---1---1-----------1-------1---|1-----------1-1-1-1---1----1-------1---|
  PM-------|          PM---|  PM----|          PM-----|  PM-| PM---|  PM-|

                                   Reign of Darkness!
e|--------------------------------|----------------------------------------------------|
B|--------------------------------|----------------------------------------------------|
G|--------------------------------|----------------------------------------------------|
D|--------------------------------|----------------------------------------------------|
A|--------------------------------|----------------------------------------------------|
E|0---0---0-----------0-0---0-0---|0---0-----------0-0-0-0-0---0-0-0-0-0---0-0-0-0-0---|
A|1---1---1-----------1-1---1-1---|1---1-----------1-1-1-1-1---1-1-1-1-1---1-1-1-1-1---|
  PM-------|          PM-|  PM-|   PM------|       PM-------|  PM-------|  PM-------|

[Verse 2 Part 1]
(Guitar 1 and 2)                   1st Ending                       2nd Ending
e|--------------------------------|--------------------------------|--------------------------------|
B|--------------------------------|--------------------------------|--------------------------------|
G|--------------------------------|--------------------------------|--------------------------------|
D|--------------------------------|--------------------------------|--------------------------------|(x2)
A|6-7-----------------6-7---------|6-7-----------------------------|6-7-----------------------------|
E|4-5-----------------4-5---------|4-5-------------6-6-5-5---------|4-5-------------6-6-----9-9-----|
A|----0-0-0-0-0-0-0-0-----0-0-0-0-|----0-0-0-0-0-0---------8-8-5-5-|----0-0-0-0-0-0-----5-5-----8-8-|
      PM-------------|    PM-----|     PM---------|                     PM---------|

[Verse 2 Part 2]
(Guitar 1 and 2)
e|--------------------------------|--------------------------------|
B|--------------------------------|--------------------------------|
G|--------------------------------|--------------------------------|
D|--------7-7-7-7-7-7-7-7-7-7-7-7-|8-8-8-8-8-8-8-8-8-8-8-8-8-8-8-8-|(x2)
A|--------x-x-x-x-x-x-x-x-x-x-x-x-|x-x-x-x-x-x-x-x-x-x-x-x-x-x-x-x-|
E|--------5-5-5-5-5-5-5-5-5-5-5-5-|6-6-6-6-6-6-6-6-6-6-6-6-6-6-6-6-|
A|0-------------------------------|--------------------------------|

[Solo]
(Guitar 1)
e|--------------------------------|--------------------------------|--------------------------------|
B|--------------------------------|--------------------------------|--------------------------------|
G|--------------------------------|--------------------------------|--------------------------------|
D|7-7-7-7-7-7-7-7-7-7-7-7-7-7-7-7-|8-8-8-8-8-8-8-8-8-8-8-8-8-8-8-8-|--------------------------------|
A|x-x-x-x-x-x-x-x-x-x-x-x-x-x-x-x-|x-x-x-x-x-x-x-x-x-x-x-x-x-x-x-x-|5-5-5-5-5-5-5-5-5-5-5-5-5-5-5-5-|
E|5-5-5-5-5-5-5-5-5-5-5-5-5-5-5-5-|6-6-6-6-6-6-6-6-6-6-6-6-6-6-6-6-|x-x-x-x-x-x-x-x-x-x-x-x-x-x-x-x-|
A|--------------------------------|--------------------------------|5-5-5-5-5-5-5-5-5-5-5-5-5-5-5-5-|

  1st, 2nd, and 3rd Ending         4th Ending
e|--------------------------------|--------------------------------|--------------------------------|
B|--------------------------------|--------------------------------|--------------------------------|
G|--------------------------------|--------------------------------|--------------------------------|
D|--------------------------------|--------------------------------|--------------------------------|
A|4-4-4-4-4-4-4-4-4-4-4-4---------|--------------------------------|0-------------------------------|
E|x-x-x-x-x-x-x-x-x-x-x-x-4---4---|4---4-----------0---0-----------|0-------------------------------|
A|4-4-4-4-4-4-4-4-4-4-4-4-4---4---|5---5-----------1---1-----------|0-------------------------------|
                          PM-----| PM-----|        PM-----|

(Guitar 2)
e|------------------------------------|---------------------------18-21-22-|
B|------------------------------------|---------18-20-22-18-20-22----------|
G|---------------------------18-19-21-|18-19-21----------------------------|
D|---------17-19-20-17-19-20----------|------------------------------------|
A|17-19-20----------------------------|------------------------------------|
E|------------------------------------|------------------------------------|
A|------------------------------------|------------------------------------|

e|22-22-22-22-22-22-22-22-22-22-22-22-|22-21-18-21-22----------------|
B|------------------------------------|---------------18-20-22-20-18-|
G|------------------------------------|------------------------------|
D|------------------------------------|------------------------------|
A|------------------------------------|------------------------------|
E|------------------------------------|------------------------------|
A|------------------------------------|------------------------------|

e|------------------------------|------------------------------|
B|20-18-17-18-20----------------|------------------------------|
G|---------------18-19-21-19-18-|19-18-15-18-19----------------|
D|------------------------------|---------------15-17-19-17-15-|
A|------------------------------|------------------------------|
E|------------------------------|------------------------------|
A|------------------------------|------------------------------|

e|------------------------------|------------------------|----------------------------|
B|------------------------------|------------------------|-------------------17---18--|
G|------------------------------|------------------------|----------17--18------------|
D|17-15-14-15-17----------------|---------------14-15-17-|19---20---------------------|
A|---------------16-17-19-17-16-|17-16-13-16-17----------|----------------------------|
E|------------------------------|------------------------|----------------------------|
A|------------------------------|------------------------|----------------------------|

                                                t          t          t          t
e|--------------|---------------13-------|---------------------------|17p12p8----19~----p12---8---|
B|20b22-22br20--|20b22~----17--------17--|------13p10------12p8------|-------h10------------------|
G|--------------|------------------------|13~--------h9--------h10---|----------------------------|
D|--------------|------------------------|-------------h10--------h9-|----------------------------|
A|--------------|------------------------|---------------------------|----------------------------|
E|--------------|------------------------|---------------------------|----------------------------|
A|--------------|------------------------|---------------------------|----------------------------|

e|--------------|------------------------|----------------8-10-12-|10-12-10-8----------|-------------------|
B|12~----13--12~|----13\9~-------10\6~---|--------9-10-12---------|------------12-10-9-|10-12-10-9---------|
G|--------------|------------------------|------------------------|--------------------|------------10-9-7-|
D|--------------|------------------------|------------------------|--------------------|-------------------|
A|--------------|------------------------|------------------------|--------------------|-------------------|
E|--------------|------------------------|------------------------|--------------------|-------------------|
A|--------------|------------------------|------------------------|--------------------|-------------------|

e|--------------------|------------------------------------|---------15-17h18p17p15-22~---|
B|--------------------|------------------------------------|15-17-18----------------------|
G|9-10-9-7------------|9-----------------------------14-15-|------------------------------|
D|----------10\9-6----|---------------------12-14-15-------|------------------------------|
A|--------------------|---------------12-13----------------|------------------------------|
E|--------------------|------10-12-13----------------------|------------------------------|
A|--------------------|------------------------------------|------------------------------|

e|-----------------17----|------18-17-------------|---------------------------|-----------|
B|--------------------18-|17-15-------18-17-------|---------14b15-------------|-----------|
G|-----14----------------|------------------15-14\|11-------------------------|10~--------|
D|--------15-14-12-------|------------------------|---------------------------|-----------|
A|12-8-------------------|------------------------|---------------------------|-----------|
E|-----------------------|------------------------|---------------------------|-----------|
A|-----------------------|------------------------|---------------------------|-----------|

[Outro Breakdown Part 1]
(Guitar 1 and 2)                     1st Ending                       2nd Ending
e|--------------------------------|--------------------------------|-----------------------------------------|
B|--------------------------------|--------------------------------|-----------------------------------------|
G|--------------------------------|--------------------------------|-----------------------------------------|
D|--------------------------------|--------------------------------|-----------------------------------------|
A|--------------------------------|--------------------------------|-----------------------------------------|
E|0---0-------------------0---0---|--------0---0-------0---0-------|-0--0-----0--0-----0-0-0-0-0---0-0-0-0---|
A|1---1-------------------1---1---|--------1---1-------1---1-------|-1--1-----1--1-----1-1-1-1-1---1-1-1-1---|
  PM-----|                PM-----|         PM-----|    PM-----|      PM----|  PM---|   PM--------| PM------|

[Outro Breakdown Part 2]
(Guitar 1)
e|--------------------------------|------------------------------|
B|--------------------------------|------------------------------|
G|--------------------------------|------------------------------|
D|--------------------------------|------------------------------|
A|--------------------------------|------------------------------|
E|0-0-0-0-0-0-0-----------0-0-----|0-0-----0-0-----0-0-0-0-0-0---|
A|1-1-1-1-1-1-1-----------1-1-----|1-1-----1-1-----1-1-1-1-1-1---|
  PM-----------|          PM-|     PM-|    PM-|    PM---------|

e|--------------------------------|------------------------------|
B|--------------------------------|------------------------------|
G|--------------------------------|------------------------------|
D|--------------------------------|------------------------------|
A|--------------------------------|------------------------------|
E|0-0---------0-0---------0-0-----|--------0-0-0-0-0---0-0-0-0--0|
A|1-1---------1-1---------1-1-----|--------1-1-1-1-1---1-1-1-1--1|
  PM-|        PM-|        PM-|             PM-------|  PM-------|

e|--------------------------------|------------------------------|
B|--------------------------------|------------------------------|
G|--------------------------------|------------------------------|
D|--------------------------------|------------------------------|
A|--------------------------------|------------------------------|
E|0-0-0-0-0-0-0-----------0-0-----|0-0-----0-0-----0-0-0-0-0-0---|
A|1-1-1-1-1-1-1-----------1-1-----|1-1-----1-1-----1-1-1-1-1-1---|
  PM-----------|          PM-|     PM-|    PM-|    PM---------|

e|--------------------------------|--------------------------------|
B|--------------------------------|--------------------------------|
G|--------------------------------|--------------------------------|
D|--------------------------------|--------------------------------|
A|--------------------------------|--------------------------------|
E|0-0---------0-0---------0-0-----|--------0-0-0-0-0---0---0---0-0-|
A|1-1---------1-1---------1-1-----|--------1-1-1-1-1---1---1---1-1-|
  PM-|        PM-|        PM-----|         PM-------|  PM---------|

(Guitar 2)                                                                   1st Ending
e|------------------------|------------------------|------------------------|------------------------|
B|10-10-10-10-10-10-10-10-|10-10-10-10-10-10-10-10-|10-10-10-10-10-10-10-10-|10-10-10-10-10-10-10-10-|
G|14-14-14-14-14-14-15-15-|15-15-15-15-15-15-15-15-|15-14-14-14-14-14-14-14-|14-14-14-14-14-14-14-14-|
D|------------------------|------------------------|------------------------|------------------------|
A|------------------------|------------------------|------------------------|------------------------|
E|------------------------|------------------------|------------------------|------------------------|
A|------------------------|------------------------|------------------------|------------------------|

  2nd Ending
e|------------------------|
B|10-10-10-10-10----------|
G|14-14-14-14-14----------|
D|------------------------|
A|------------------------|
E|------------------------|
A|------------------------|


************************************

| x   Dead note
| h   Hammer-on
| p   Pull-off
| t   Tapping
| b   Bend
| br  Bend release
| \   Slide down
| ~   Vibrato
| PM  Palm mute

************************************

            
            
Suggest correction
Creating personal tab
Creating personal tab
You can edit any tab online and save it as your Personal.

You can edit, replace or remove any tab part or add personal notes – all changes will be seen only by you.

Personal tabs can be accessed anytime from any device, even offline.
Learn more »
Give kudos to tab author, rate the tab!
1 2 3 4 5
comments
print report bad tab
1 comment total.
0 reply
LMBozovich 731 Jun 17, 2017 11:24 AM

Make sure to rate this tab.

guest
You may want to rate the tab now too:
select rating
Wanna post a correction for this tab? Suggest correction