Oops, an error
Loading. Please wait.

The Purest Strain Of Hate tab

625 views 21 this week
1 commentread comment
1 2 3 4 5
2 more votes to show rating
add to favorites
×
Save as Personal and add changes to this tab that will be seen only by you. Learn more ›
×
You can save this tab as Personal to edit and correct it or add notes. All changes will be seen only by you. Learn more »
launch autoscroll
font size
0
reset
how to read this tab
guitar tuner
edit
Autoscroll
slow
fast
+/-
esc
set tempo
stop
About this tab version
This is Thy Art Is Murder's "The Purest Strain of Hate" from the album "Hate." Classic 4/4 time, at a tempo of 136 bpm. This tab is based off the cover performed by Pieter Rietkerk. Was this info helpful? Yes No
[Intro]
(Guitar 1 and 2)
e|--------------------------------|--------------------------------|
B|--------------------------------|--------------------------------|
G|--------------------------------|--------------------------------|
D|--------------------------------|--------------------------------|
A|--------------------------------|----5---5-----------4---4---4---|
E|----------------0---5---2---1---|0---2---2---1---0---1---1---1---|
A|1b3-0-0-1b3-----0---5---2---1---|0-----------1---0---------------|
      PM-|        PM------------------|        PM-----|

  1st Ending
e|--------------------------------|--------------------------------|
B|--------------------------------|--------------------------------|
G|--------------------------------|--------------------------------|
D|--------------------------------|--------------------------------|
A|--------------------------------|------------3/4\3---------------|
E|----------------0---2---5---2---|5---2---1---1/2\1---5---4---1---|
A|0-0-1b3-0-0-1b3-0---2---5---2---|5---2---1-----------5---4---1---|
  PM-|    PM-|    PM--------------------------|        PM-------|

  2nd Ending
e|--------------------------------|--------------------------------|
B|--------------------------------|--------------------------------|
G|--------------------------------|--------------------------------|
D|--------------------------------|--------------------------------|
A|--------------------------------|------------4---3---------------|
E|----------------0---2---5---2---|5---2---1---2---1--5--4-5--4--1-|
A|0-0-1b3-0-0-1b3-0---2---5---2---|5---2---1----------5--4-5--4--1-|
  PM-|    PM-|    PM--------------------------|       PM--|   PM--|

[Verse Part 1]
(Guitar 1)
(Guitar 2 plays after 1st Ending)
e|--------------------------------|----------------------------------|
B|--------------------------------|----------------------------------|
G|--------------------------------|----------------------------------|
D|--------------------------------|----------------------------------|
A|--------------------------------|----------------------------------|
E|3-3-----3-3-----4-4-3-3-----3-3-|----4-4-3-3-----7-4-----10-7------|
A|----1-1-----1-1---------1-1-----|1-1---------1-1-----8-5------11-8-|
      PM-|    PM-|        PM-|     PM-|        PM-|    PM-|     PM-|

  1st Ending
e|--------------------------------|---------------------------------------|
B|--------------------------------|---------------------------------------|
G|--------------------------------|---------------------------------------|
D|--------------------------------|------------12h15-15p12----12----------|
A|--------------------------------|------11h14-------------14----14p11----|
E|6-6-----6-6-----7-7-6-6-----6-6-|10h13-------------------------------13-|
A|----4-4-----4-4---------4-4-----|---------------------------------------|
      PM-|    PM-|        PM-|

(Guitar 2)
e|--------------------------------|---------------------------------------|---------------------------------|
B|--------------------------------|---------------------------------------|---------------------------------|
G|--------------------------------|---------------------------------------|---------------------------------|
D|--------------------------------|---------------------------------------|---------------------------------|
A|1---------------1---1-----------|1-1-1----------------------------------|1--------------------------------|
E|1---------------1---1-----------|1-1-1----------------------------------|1--------------------------------|
A|1---------------1---1-----------|1-1-1----------------------------------|1--------------------------------|
 
  2nd, 3rd Ending
e|--------------------------------|------------------------------------------------|
B|--------------------------------|------------------------------------------------|
G|--------------------------------|------------------------------------------------|
D|--------------------------------|------------12h15-15p12----12-------------------|
A|--------------------------------|------11h14-------------14----14p11-14p11-------|
E|6-6-----6-6-----7-7-6-6-----6-6-|10h13-------------------------------------13p10-|
A|----4-4-----4-4---------4-4-----|------------------------------------------------|
      PM-|    PM-|        PM-|

[Verse Part 2]
(Guitar 1 and 2)
e|--------------------------------|--------------------------------|
B|--------------------------------|--------------------------------|
G|--------------------------------|--------------------------------|
D|--------------------------------|--------------------------------|
A|1---------------1---2---1-------|--------------------------------|
E|1---------------1---2---1-------|--------------------------------|
A|1---1-1-1-1-1-1-1---2---1---1-1-|1-1-1-1-1-1-1-1-4-4-4-4-5-5-5-5-|
      PM---------|            PM------------------|

  1st Ending
e|--------------------------------|--------------------------------|
B|--------------------------------|--------------------------------|
G|--------------------------------|--------------------------------|
D|--------------------------------|--------------------------------|
A|1---------------1---2---1-------|--------------------------------|
E|1---------------1---2---1-------|--------------------------------|
A|1---1-1-1-1-1-1-1---2---1---1-1-|5-5-5-5-5-5-7-7-7-7-7-7-4-4-4-4-|
      PM---------|            PM-|

  2nd Ending
e|--------------------------------|--------------------------------|
B|--------------------------------|--------------------------------|
G|--------------------------------|--------------------------------|
D|--------------------------------|--------------------------------|
A|1---------------1---2---1-------|------8---------------5/4-------|
E|1---------------1---2---1-------|--------------------------------|
A|1---1-1-1-1-1-1-1---2---1---1-1-|8-----------8---4---------------|
      PM---------|            PM-|

[Hook]
(Guitar 1 and 2)
e|--------------------------------|------------------------------------------|
B|--------------------------------|------------------------------------------|
G|3---------------3---4---3-------|3---------------3---4---2-----------------|
D|3---------------3---4---3-------|3---------------3---4---2-----------------|(x2)
A|1---------------1---2---1-------|1---------------1---2---0-----------------|
E|1-----------0---1---2---1-------|1-----------0---1---2---0-----------------|
A|1-----------0---1---2---1-------|1-----------0---1---2---0-----------------|
             |PM-|                            |PM-|

[Breakdown]
(Guitar 1 and 2)
e|--------------------------------|------------------------------------------|
B|--------------------------------|------------------------------------------|
G|--------------------------------|------------------------------------------|
D|--------------------------------|------------------------------------------|
A|--------------------------------|------------------------------------------|
E|0-----------0---0---0-----------|--------0---0-----------------------------|
A|1-----------1---1---1-----------|--------1---1-------0---------------------|
  PM--------------------------------------------|

e|--------------------------------|------------------------------------------|
B|--------------------------------|------------------------------------------|
G|--------------------------------|------------------------------------------|
D|--------------------------------|------------------------------------------|(x2)
A|--------------------------------|------------------------------------------|
E|----------------0---0-----------|--------0---0-------0---0-0-0-------------|
A|2pbr1-----------1---1-----------|--------1---1-------1---0-0-0-------------|
                  PM--------------------------------------------|

[Bridge]
(Guitar 1 and 2)
e|-------------------------------------------------|------------------------------------------------|
B|-------------------------------------------------|------------------------------------------------|
G|-------------------------------------------------|------------------------------------------------|
D|-------------------------------------------------|------------------------------------------------|
A|-------------------------------------------------|------------------------------------------------|
E|0-0-0-------0-0-0--------------------------------|0-0-0-------0-0-0-------0-0-0-------0-0-0-------|
A|0-0-0-------0-0-0-------2-3-2-3-2-3--5-6-5-6-5-6-|0-0-0-------0-0-0-------0-0-0-------0-0-0-------|
  PM---|      PM---|      PM----------------------| PM---|      PM---|      PM---|      PM---|

  1st Ending                                        2nd, 3rd, 4th Ending
e|-------------------------------------------------|------------------------------------------------|
B|-------------------------------------------------|------------------------------------------------|
G|-------------------------------------------------|------------------------------------------------|
D|-------------------------------------------------|------------------------------------------------|
A|------------------------2-3-2-3-2-3--------------|------------------------2-3-2-3-2-3-------------|
E|------------2-3-2-3-2-3-------------2------------|------------2-3-2-3-2-3-------------2-3-2-3-2-3-|
A|2-3-2-3-2-3--------------------------------------|2-3-2-3-2-3-------------------------------------|
  PM---------|                                      PM---------|

(Guitar 1)  5th Ending
e|------------------------|
B|------------------------|
G|------------------------|
D|------------------------|
A|------------------------|
E|------------2-3-2-3-2-3-|
A|2-3-2-3-2-3-------------|
  PM---------|

(Guitar 2) 5th Ending
e|------------------------|
B|------------------------|
G|0-----------------------|
D|------------------------|
A|------------------------|
E|------------------------|
A|------------------------|
Dive Bomb!

[Solo]
e|--------------------------------|--------------------------------|
B|--------------------------------|--------------------------------|
G|--------------------------------|--------------------------------|
D|--------------------------------|--------------------------------|
A|1---------------1---2---1-------|--------------------------------|
E|1---------------1---2---1-------|--------------------------------|
A|1---1-1-1-1-1-1-1---2---1---1-1-|1-1-1-1-1-1-1-1-4-4-4-4-5-5-5-5-|
      PM---------|            PM------------------|

  1st Ending
e|--------------------------------|--------------------------------|
B|--------------------------------|--------------------------------|
G|--------------------------------|--------------------------------|
D|--------------------------------|--------------------------------|
A|1---------------1---2---1-------|--------------------------------|
E|1---------------1---2---1-------|--------------------------------|
A|1---1-1-1-1-1-1-1---2---1---1-1-|5-5-5-5-5-5-7-7-7-7-7-7-4-4-4-4-|
      PM---------|            PM-|

  2nd Ending
e|--------------------------------|--------------------------------|
B|--------------------------------|--------------------------------|
G|--------------------------------|--------------------------------|
D|--------------------------------|--------------------------------|
A|1---------------1---2---1-------|------8---------------5/4-------|
E|1---------------1---2---1-------|--------------------------------|
A|1---1-1-1-1-1-1-1---2---1---1-1-|8-----------8---4---------------|
      PM---------|            PM-|

(Guitar 2)             t
e|---------------------------------------------|---------------------------------------|
B|---------------------------------------------|-------------------------------9-12-15-|
G|---------------------------------------------|---------------------------------------|
D|-----------9--12--15-18-15--12--9------------|-----------9--12--15-9--12--15---------|
A|---------------------------------------------|---------------------------------------|
E|10--13--16------------------------16--13--10-|10--13--16-----------------------------|
A|---------------------------------------------|---------------------------------------|

  t                                                                  t
e|--------------------------------------------|-----------10--13--16-19--16--13-10--13--16-|
B|18-15--12--9--------------------------------|--------------------------------------------|
G|---------------------------------10--13--16-|10--13--16----------------------------------|
D|-------------15--12--9----------------------|--------------------------------------------|
A|-----------------------14--11--8------------|--------------------------------------------|
E|--------------------------------------------|--------------------------------------------|
A|--------------------------------------------|--------------------------------------------|

e|12b13----------b13~--------------|----13-----------------------------------|
B|---------------------------------|12---------12----------------------------|
G|---------------------------------|--------13----10~------------------------|
D|---------------------------------|-----------------------------------------|
A|---------------------------------|-----------------------------------------|
E|---------------------------------|-----------------------------------------|
A|---------------------------------|-----------------------------------------|

e|13-10----------------------------------10-13-10-|13-10----------16-13----------19-16----------18b19---|
B|------12----------------------------12----------|------12-------------15-------------18---------------|
G|---------13-10----------------10-13-------------|---------13-10----------16-13----------19-16---------|
D|---------------12----------12-------------------|-----------------------------------------------------|
A|------------------14-11-14----------------------|-----------------------------------------------------|
E|------------------------------------------------|-----------------------------------------------------|
A|------------------------------------------------|-----------------------------------------------------|

e|----------------18~------16-14-13----|-------------------------------------|
B|----------------------------------15-|12--11-------------------------------|
G|-------------------------------------|--------13-11-13-11-10---------------|
D|-------------------------------------|-------------------------13---12~----|
A|-------------------------------------|-------------------------------------|
E|-------------------------------------|-------------------------------------|
A|-------------------------------------|-------------------------------------|
                                                                      dive down

[Build-up]
(Guitar 1 and Guitar 2)
e|--------------------------------|------------------------------------------|
B|--------------------------------|------------------------------------------|
G|--------------------------------|------------------------------------------|
D|--------------------------------|------------------------------------------|
A|1-------------------------------|1-----------------------------------------|
E|1---------------1---------------|1---------------0-------------------------|
A|1---------------1---------------|1---------------0-------------------------|
                  PM-|                             PM-|

************************************


| h   Hammer-on
| p   Pull-off
| b   bend
| pbr Pre-bend release
| t   tapping
| /   Slide up
| \   Slide down
| ~   Vibrato
| PM  Palm mute

************************************

            
            
Suggest correction
Creating personal tab
Creating personal tab
You can edit any tab online and save it as your Personal.

You can edit, replace or remove any tab part or add personal notes – all changes will be seen only by you.

Personal tabs can be accessed anytime from any device, even offline.
Learn more »
Give kudos to tab author, rate the tab!
1 2 3 4 5
comments
print report bad tab
1 comment total.
0 reply
LMBozovich 1,140 Jun 17, 2017 11:25 AM

Make sure to rate this tab.

guest
You may want to rate the tab now too:
select rating
Wanna post a correction for this tab? Suggest correction