Oops, an error
Loading. Please wait.

Whore To A Chainsaw Tab

version 1
version 1

Whole song

Interactive

33,959 views 27 this week
7 commentsread comments
1 2 3 4 5
x 8
add to favorites
launch autoscroll
font size
0
reset
how to read this tab
guitar tuner
×
Best way to learn
"Whore To A Chainsaw"
Autoscroll
slow
fast
+/-
esc
set tempo
stop
Author
Difficulty
Tuning
  follow
intermediate
A E A D F# B
WHORE TO A CHAINSAW
                        As recorded by Thy Art Is Murder
                     (From the 2008 Album INFINITE DEATH EP)
                         www.myspace.com/thyartismurder

Music by Thy Art Is Murder
Transcribed by Patsyxcore

Gtr I (A E A D Gb B) - 'Left'
Gtr II (A E A D Gb B) - 'Right'
Gtr III (A E A D Gb B) - 'Extra'
Gtr IV (A E A D Gb B) - 'Center'
Gtr V (A E A D Gb B) - 'Center'

 Intro
  Q=156
  D5  N.C.                                  G5D5EbGb5
 4/4
  Gtr I
  PM        PM        PM          PM        PM-------
  E S S S S E S S S S E S S   S S E S S S S E E E E
B |---------------------------|-----------------------|
F#|---------------------------|-----------------------|
D |---------------------------|-----------------------|
A |---------------------------|-----------------------|
E |-0-5-5-5-5---4-4-4-4---5-5-|-5-5---4-4-4-4-5-0-1-4-|
A |-0---------0---------0-----|-----0---------5-0-1-4-|
  |
  | Gtr II
  | PM-------------------------------------------------
  | E E   Q     H               H             E E E E
B |---------------------------|-----------------------|
F#|---------------------------|-----------------------|
D |---------------------------|-----------------------|
A |---------------------------|-----------------------|
E |-0-------------------------|---------------5-0-1-4-|
A |-0-------------------------|---------------5-0-1-4-|

  D5  N.C.                                  G5D5EbGb5
   -|         PM        PM          PM        PM----|
    E S S S S E S S S S E S S   S S E S S S S E E E E
B |---------------------------|-------------------------|
F#|---------------------------|-------------------------|
D |---------------------------|-------------------------|
A |---------------------------|-------------------------|
E |-0-5-5-5-5---4-4-4-4---5-5-|-5-5---4-4-4-4-5-0-1-4---|
A |-0---------0---------0-----|-----0---------5-0-1-4---|
  |
  |-------------------------------------------------|
  | E E   Q     H               H             E E E E
B |---------------------------|-------------------------|
F#|---------------------------|-------------------------|
D |---------------------------|-------------------------|
A |---------------------------|-------------------------|
E |-0-------------------------|---------------5-0-1-4---|
A |-0-------------------------|---------------5-0-1-4---|

    N.C.                                      G5D5EbGb5
    PM        PM        PM          PM        PM-------
    E S S S S E S S S S E S S   S S E S S S S E E E E
B |---------------------------|-----------------------|
F#|---------------------------|-----------------------|
D |---------------------------|-----------------------|
A |---------------------------|-----------------------|
E |---5-5-5-5---4-4-4-4---5-5-|-5-5---4-4-4-4-5-0-1-4-|
A |-0---------0---------0-----|-----0---------5-0-1-4-|
  |
  | PM        PM        PM          PM        PM-------
  | E S S S S E S S S S E S S   S S E S S S S E E E E
B |---------------------------|-----------------------|
F#|---------------------------|-----------------------|
D |---------------------------|-----------------------|
A |---------------------------|-----------------------|
E |---8-8-8-8---7-7-7-7---8-8-|-8-8---7-7-7-7-5-0-1-4-|
A |-0---------0---------0-----|-----0---------5-0-1-4-|

  N.C.                                      G5D5EbGb5
   -|         PM        PM          PM        PM----|
    E S S S S E S S S S E S S   S S E S S S S E E E E
B |---------------------------|--------------------------|
F#|---------------------------|--------------------------|
D |---------------------------|--------------------------|
A |---------------------------|--------------------------|
E |---5-5-5-5---4-4-4-4---5-5-|-5-5---4-4-4-4-5-0-1-4----|
A |-0---------0---------0-----|-----0---------5-0-1-4----|
|
  |-|         PM        PM          PM        PM----|
  | E S S S S E S S S S E S S   S S E S S S S E E E E
B |---------------------------|--------------------------|
F#|---------------------------|--------------------------|
D |---------------------------|--------------------------|
A |---------------------------|--------------------------|
E |---8-8-8-8---7-7-7-7---8-8-|-8-8---7-7-7-7-5-0-1-4----|
A |-0---------0---------0-----|-----0---------5-0-1-4----|

             Minor Third Breakdown
    N.C.        D5    N.C. D5    N.C.       D5    N.C.
                PM--|      PM--|            PM--|
                |-3-|      |-3-|            |-3-|
    W           E E E  Q   E E E  Q     Q   E E E  Q   Q
B |----------||----------------------|---------------------|
F#|----------||-------14\--------14--|-14---------14--14---|
D |----------||-------17\--------17--|-17---------17--17---|
A |----------||----------------------|---------------------|
E |----------||-0-0-0------0-0-0-----|------0-0-0----------|
A |----------||-0-0-0------0-0-0-----|------0-0-0----------|
  |
  |             PM--|      PM--|            PM--|
  |             |-3-|      |-3-|            |-3-|
  | W           E E E  Q   E E E  Q     Q   E E E  Q   Q
B |----------||----------------------|---------------------|
F#|----------||-------14\--------14--|-14\--------14--14\--|
D |----------||-------17\--------17--|-17\--------17--17\--|
A |----------||----------------------|---------------------|
E |----------||-0-0-0------0-0-0-----|------0-0-0----------|
A |----------||-0-0-0------0-0-0-----|------0-0-0----------|

    D5    N.C. D5    N.C.       D5    N.C.
    PM--|      PM--|            PM--|
    |-3-|      |-3-|            |-3-|  |--3--|  |--3--|
    E E E  Q   E E E  Q     Q   E E E  E  E  E  E  E  E
B |----------------------|------------17-14-16------------|
F#|-------14\--------14--|-14------------------18-19-18---|
D |-------17\--------17--|-17-----------------------------|
A |----------------------|--------------------------------|
E |-0-0-0------0-0-0-----|------0-0-0---------------------|
A |-0-0-0------0-0-0-----|------0-0-0---------------------|
  |
  | PM--|      PM--|            PM--|
  | |-3-|      |-3-|            |-3-|  |--3--|  |--3--|
  | E E E  Q   E E E  Q     Q   E E E  E  E  E  E  E  E
B |----------------------|------------17-14-16------------|
F#|-------14\--------14--|-14\-----------------18-19-18---|
D |-------17\--------17--|-17\----------------------------|
A |----------------------|--------------------------------|
E |-0-0-0------0-0-0-----|------0-0-0---------------------|
A |-0-0-0------0-0-0-----|------0-0-0---------------------|

    D5         D5    N.C.       D5    N.C.
    PM--|      PM--|            PM--|
    |-3-|      |-3-|            |-3-|
    E E E  Q   E E E  Q     Q   E E E  Q   Q
B |----------------------|---------------------|
F#|-------14\--------14--|-14---------14--14---|
D |-------17\--------17--|-17---------17--17---|
A |----------------------|---------------------|
E |-0-0-0------0-0-0-----|------0-0-0----------|
A |-0-0-0------0-0-0-----|------0-0-0----------|
  |
  | PM--|      PM--|            PM--|
  | |-3-|      |-3-|            |-3-|
  | E E E  Q   E E E  Q     Q   E E E  Q   Q
B |----------------------|---------------------|
F#|-------14\--------14--|-14\--------14--14\--|
D |-------17\--------17--|-17\--------17--17\--|
A |----------------------|---------------------|
E |-0-0-0------0-0-0-----|------0-0-0----------|
A |-0-0-0------0-0-0-----|------0-0-0----------|

    D5    N.C. D5    N.C.       D5    N.C.
    PM--|      PM--|            PM--|
    |-3-|      |-3-|            |-3-|  |--3--|  |--3--|
    E E E  Q   E E E  Q     Q   E E E  E  E  E  E  E  E
B |----------------------|------------17-14-16-----------|
F#|-------14\--------14--|-14------------------18-19-18--|
D |-------17\--------17--|-17----------------------------|
A |----------------------|-------------------------------|
E |-0-0-0------0-0-0-----|------0-0-0--------------------|
A |-0-0-0------0-0-0-----|------0-0-0--------------------|
  |
  | PM--|      PM--|            PM--|
  | |-3-|      |-3-|            |-3-|  |--3--|  |--3--|
  | E E E  Q   E E E  Q     Q   E E E  E  E  E  E  E  E
B |----------------------|------------20-17-19-----------|
F#|-------14\--------14--|-14\-----------------21-22-21--|
D |-------17\--------17--|-17\---------------------------|
A |----------------------|-------------------------------|
E |-0-0-0------0-0-0-----|------0-0-0--------------------|
A |-0-0-0------0-0-0-----|------0-0-0--------------------|

    D5
    Gtr I
    PM--|      PM--|            PM--|
    |-3-|      |-3-|            |-3-|
    E E E  Q   E E E  Q     Q   E E E  Q   Q
B |----------------------|--------------------|
F#|-------14\--------14--|-14---------14--14--|
D |-------17\--------17--|-17---------17--17--|
A |----------------------|--------------------|
E |-0-0-0------0-0-0-----|------0-0-0---------|
A |-0-0-0------0-0-0-----|------0-0-0---------|
  |
  | Gtr II
  | PM--|      PM--|            PM--|
  | |-3-|      |-3-|            |-3-|
  | E E E  Q   E E E  Q     Q   E E E  Q   Q
B |----------------------|--------------------|
F#|-------18---------18--|-18---------18--18--|
D |-------21---------21--|-21---------21--21--|
A |----------------------|--------------------|
E |-0-0-0------0-0-0-----|------0-0-0---------|
A |-0-0-0------0-0-0-----|------0-0-0---------|
  |
  | Gtr III
  | PM-----------------------------------------
  | |-3-|      |-3-|            |-3-|
  | E E E  Q   E E E  Q    +Q   E E E  H
B |----------------------|--------------------|
F#|----------------------|--------------------|
D |----------------------|--------------------|
A |----------------------|--------------------|
E |-0-0-0--0---0-0-0--0--|-(0)--0-0-0--0------|
A |-0-0-0--0---0-0-0--0--|-(0)--0-0-0--0------|

                                    N.C.
  PM--|      PM--|            PM--|
    |-3-|      |-3-|            |-3-|  |--3--|  |--3--|
    E E E  Q   E E E  Q     Q   E E E  E  E  E  E  E  E
B |----------------------|------------17-14-16-----------|
F#|-------14\--------14--|-14------------------18-19-18--|
D |-------17\--------17--|-17----------------------------|
A |----------------------|-------------------------------|
E |-0-0-0------0-0-0-----|------0-0-0--------------------|
A |-0-0-0------0-0-0-----|------0-0-0--------------------|
  |
  | PM--|      PM--|            PM--|
  | |-3-|      |-3-|            |-3-|  |--3--|  |--3--|
  | E E E  Q   E E E  Q     Q   E E E  E  E  E  E  E  E
B |----------------------|------------20-17-19-----------|
F#|-------18---------18--|-18------------------21-22-21--|
D |-------21---------21--|-21----------------------------|
A |----------------------|-------------------------------|
E |-0-0-0------0-0-0-----|------0-0-0--------------------|
A |-0-0-0------0-0-0-----|------0-0-0--------------------|
  |
  |-----------------------------------|
  | |-3-|      |-3-|            |-3-|
  | E E E  Q   E E E  Q    +Q   E E E  H
B |----------------------|-------------------------------|
F#|----------------------|-------------------------------|
D |----------------------|-------------------------------|
A |----------------------|-------------------------------|
E |-0-0-0--0---0-0-0--0--|-(0)--0-0-0--------------------|
A |-0-0-0--0---0-0-0--0--|-(0)--0-0-0--------------------|

   Fast Part
    H=H      Q=238
    D5         G5GbEbD5   N.C.
               PM--|      PM------|         PM---
    W          E E E Q.   E E   E E E E E E E E
B |----------|----------------|-----------------|
F#|----------|----------------|-----------------|
D |----------|----------------|-----------------|
A |-0--------|-------0--------|-----------------|
E |-0--------|-5-4-1-0--------|-----5p0-5p0-----|
A |-0--------|-5-4-1-0----0-0-|-0-0---------0-0-|
  |
  |            PM--|      PM------|         PM---
  | W          E E E Q.   E E   E E E E E E E E
B |----------|----------------|-----------------|
F#|----------|----------------|-----------------|
D |----------|----------------|-----------------|
A |-0--------|-------0--------|-----------------|
E |-0--------|-5-4-1-0--------|-----5p0-5p0-----|
A |-0--------|-5-4-1-0----0-0-|-0-0---------0-0-|

   ---|         PM----------|
    E E E E E E E E   E E E E E E E E
B |-----------------|-----------------|
F#|-----------------|-----------------|
D |-----------------|-----------------|
A |-----------------|-----------------|
E |-----4p0-4p0-----|---------8p7p4p0-|
A |-0-0---------0-0-|-0-0-0-0---------|
|
  |---|         PM----------|
  | E E E E E E E E   E E E E E E E E
B |-----------------|-----------------|
F#|-----------------|-----------------|
D |-----------------|-----------------|
A |-----------------|-----------------|
E |-----4p0-4p0-----|---------8p7p4p0-|
A |-0-0---------0-0-|-0-0-0-0---------|

    G5GbEbD5   N.C.
    PM--|      PM------|         PM---
    E E E Q.   E E   E E E E E E E E
B |----------------|-----------------|
F#|----------------|-----------------|
D |----------------|-----------------|
A |-------0--------|-----------------|
E |-5-4-1-0--------|-----5p0-5p0-----|
A |-5-4-1-0----0-0-|-0-0---------0-0-|
  |
  | PM--|      PM------|         PM---
  | E E E Q.   E E   E E E E E E E E
B |----------------|-----------------|
F#|----------------|-----------------|
D |----------------|-----------------|
A |-------0--------|-----------------|
E |-5-4-1-0--------|-----5p0-5p0-----|
A |-5-4-1-0----0-0-|-0-0---------0-0-|

   ---|         PM----------|
    E E E E E E E E   E E E E  E     E   E     E
B |-----------------|-----------------------------|
F#|-----------------|-----------------------------|
D |-----------------|-----------------------------|
A |-----------------|-----------------------------|
E |-----4p0-4p0-----|----------8p====7p==4p====0--|
A |-0-0---------0-0-|-0-0-0-0---------------------|
  |
  |---|         PM----------|
  | E E E E E E E E   E E E E  E    +E  +E    +E
B |-----------------|-----------------------------|
F#|-----------------|-----------------------------|
D |-----------------|-----------------------------|
A |-----------------|-----------------------------|
E |-----4p0-4p0-----|---------[1]b3r(1)-(1)b3r(1)-|
A |-0-0---------0-0-|-0-0-0-0---------------------|

    G5GbEbD5   N.C.
    PM--|      PM------|         PM------|         PM----------|
    E E E Q.   E E   E E E E E E E E   E E E E E E E E   E E E E  E  E E E
B |----------------|-----------------|-----------------|-------------------|
F#|----------------|-----------------|-----------------|-------------------|
D |----------------|-----------------|-----------------|-------------------|
A |-------0--------|-----------------|-----------------|-------------------|
E |-5-4-1-0--------|-----8p0-8p0-----|-----7p0-7p0-----|---------11p10p7p0-|
A |-5-4-1-0----0-0-|-0-0---------0-0-|-0-0---------0-0-|-0-0-0-0-----------|
  |
  | PM--|      PM------|         PM------|         PM----------|
  | E E E Q.   E E   E E E E E E E E   E E E E E E E E   E E E E  E  E E E
B |----------------|-----------------|-----------------|-------------------|
F#|----------------|-----------------|-----------------|-------------------|
D |----------------|-----------------|-----------------|-------------------|
A |-------0--------|-----------------|-----------------|-------------------|
E |-5-4-1-0--------|-----5p0-5p0-----|-----4p0-4p0-----|----------8p=7p4p0-|
A |-5-4-1-0----0-0-|-0-0---------0-0-|-0-0---------0-0-|-0-0-0-0-----------|

    G5GbEbD5   N.C.
    PM--|      PM------|         PM---
    E E E Q.   E E   E E E E E E E E
B |----------------|-----------------|
F#|----------------|-----------------|
D |----------------|-----------------|
A |-------0--------|-----------------|
E |-5-4-1-0--------|-----8p0-8p0-----|
A |-5-4-1-0----0-0-|-0-0---------0-0-|
|
  | PM--|      PM------|         PM---
  | E E E Q.   E E   E E E E E E E E
B |----------------|-----------------|
F#|----------------|-----------------|
D |----------------|-----------------|
A |-------0--------|-----------------|
E |-5-4-1-0--------|-----5p0-5p0-----|
A |-5-4-1-0----0-0-|-0-0---------0-0-|

                    F5      N.C.
   ---|         PM----------|
    E E E E E E E E   E E E E  E     E   E     E
B |-----------------|-----------------------------|
F#|-----------------|-----------------------------|
D |-----------------|-----------------------------|
A |-----------------|-----------------------------|
E |-----7p0-7p0-----|---------11p===10p==7p====0--|
A |-0-0---------0-0-|-0-0-0-0---------------------|
|
  |---|         PM|
  | E E E E E E E E   H        E    +E  +E    +E
B |-----------------|-----------------------------|
F#|-----------------|-----------------------------|
D |-----------------|-----------------------------|
A |-----------------|-3---------------------------|
E |-----4p0-4p0-----|-3-------[4]b6r(4)-(4)b6r(4)-|
A |-0-0---------0-0-|-3---------------------------|

   Tech Part
    N.C.
      PM--|           PM----------|
      S S E E  E E  E S S E   S S E E  E E  E  E  E
B ||------------------------|-----------------------|
F#||o-----------------------|-----------------------|
D ||------------------------|------------------7h10-|
A ||-------------6h10-------|------------6h10-------|
E ||o-------5h=8------------|-------5h=8------------|
A ||--0-0-0-----------0-0-0-|-0-0-0-----------------|
|
  |   PM--|           PM----------|
  |   S S E E  E E  E S S E   S S E E  E E  E  E  E
B ||------------------------|-----------------------|
F#||o-----------------------|-----------------------|
D ||------------------------|-----------------10h13-|
A ||-------------9h14-------|------------9h14-------|
E ||o-------8h11------------|-------8h11------------|
A ||--0-0-0-----------0-0-0-|-0-0-0-----------------|

    PM--|           PM--|
    S S E E  E E  E S S E    E  E  E  E  E  E  E  E
B |-----------------------|-------------------------|
F#|-----------------------|-------------------------|
D |-----------------------|-15p14p12----------------|
A |------------6h10-------|----------15p14p12-------|
E |-------5h=8------------|-------------------14p13-|
A |-0-0-0-----------0-0-0-|-------------------------|
|
  | PM--|           PM--|
  | S S E E  E E  E S S E    E  E  E  E  E  E  E  E
B |-----------------------|-------------------------|
F#|-----------------------|-------------------------|
D |-----------------------|-18p17p15----------------|
A |------------9h14-------|----------18p17p15-------|
E |-------8h11------------|-------------------17p16-|
A |-0-0-0-----------0-0-0-|-------------------------|

  N.C.
    PM--|           PM----------|
    S S E E  E E  E S S E   S S E E  E E  E  E  E
B |-----------------------|-----------------------|
F#|-----------------------|-----------------------|
D |-----------------------|------------------7h10-|
A |------------6h10-------|------------6h10-------|
E |-------5h=8------------|-------5h=8------------|
A |-0-0-0-----------0-0-0-|-0-0-0-----------------|
|
  | PM--|           PM----------|
  | S S E E  E E  E S S E   S S E E  E E  E  E  E
B |-----------------------|-----------------------|
F#|-----------------------|-----------------------|
D |-----------------------|-----------------10h13-|
A |------------9h14-------|------------9h14-------|
E |-------8h11------------|-------8h11------------|
A |-0-0-0-----------0-0-0-|-0-0-0-----------------|

    PM--|           PM--|
    S S E E  E E  E S S E    E  E  E  E  E  E  E  E
B |-----------------------|-------------------10h13---||
F#|-----------------------|--------9h13--9h12--------o||
D |-----------------------|--7h10---------------------||
A |------------6h10-------|---------------------------||
E |-------5h=8------------|--------------------------o||
A |-0-0-0-----------0-0-0-|---------------------------||
|
  | PM--|           PM--|
  | S S E E  E E  E S S E    E  E  E  E  E  E  E  E
B |-----------------------|-------------------13h16---||
F#|-----------------------|-------12h16-12h15--------o||
D |-----------------------|-10h13---------------------||
A |------------9h14-------|---------------------------||
E |-------8h11------------|--------------------------o||
A |-0-0-0-----------0-0-0-|---------------------------||

 Build Up
  N.C.
 11/8
     |------6-------|  |------6-------|  |--3--|
     E  E  E  E  E  E  E  E  E  E  E  E  E  E  E  E
B |-17-17-------18-18-------19-19-------20-20-------|
F#|-------16-16-------17-17-------18-18-------19-19-|
D |-------------------------------------------------|
A |-------------------------------------------------|
E |-------------------------------------------------|
A |-------------------------------------------------|
  |
  |  |------6-------|  |------6-------|  |--3--|
  |  E  E  E  E  E  E  E  E  E  E  E  E  E  E  E  E
B |-20-20-------21-21-------22-22-------23-23-------|
F#|-------19-19-------20-20-------21-21-------22-22-|
D |-------------------------------------------------|
A |-------------------------------------------------|
E |-------------------------------------------------|
A |-------------------------------------------------|

   4/4
                                               <
     +W            +W            +W            W
B |-------------|-------------|-------------|--------|
F#|-(19)--------|-(19)--------|-(19)--------|-<5>----|
D |-------------|-------------|-------------|--------|
A |-------------|-------------|-------------|--------|
E |-------------|-------------|-------------|--------|
A |-------------|-------------|-------------|--------|
  |
  |                                            <
  |  +W            +W            +W            W
B |-------------|-------------|-------------|--------|
F#|-(22)--------|-(22)--------|-(22)--------|-<7>----|
D |-------------|-------------|-------------|--------|
A |-------------|-------------|-------------|--------|
E |-------------|-------------|-------------|--------|
A |-------------|-------------|-------------|--------|

    Q=131
    D5
    W          +W
B |----------|----------------------------------|
F#|----------|----------------------------------|
D |----------|----------------------------------|
A |-0--------|-(0)------------------------------|
E |-0--------|-(0)------------------------------|
A |-0--------|-(0)------------------------------|
  |
  |             TPTPTPTPTPTPTPTPTPTPTPTPTPTPTPTP
  | W           S S S S S S S S S S S S S S S S
B |----------|----------------------------------|
F#|----------|----------------------------------|
D |----------|--xsxsxsx-xsxsxsx-xsxsxsx-xsxsxsx-|
A |-0--------|--x-x-x-x-x-x-x-x-x-x-x-x-x-x-x-x-|
E |-0--------|--xsxsxsx-xsxsxsx-xsxsxsx-xsxsxsx-|
A |-0--------|----------------------------------|

   Breakdown II
    D5
    PM-----------------------------------------
    S S E S S E S S E Q    E S S E S S E Q.
B |----------------------|--------------------|
F#|----------------------|--------------------|
D |----------------------|--------------------|
A |----------------------|--------------------|
E |-0-0-0-0-0-0-0-0-0----|---0-0-0-0-0-0------|
A |-0-0-0-0-0-0-0-0-0----|---0-0-0-0-0-0------|
  |
  | PM-----------------------------------------
  | S S E S S E S S E Q    E S S E S S E Q.
B |----------------------|--------------------|
F#|----------------------|--------------------|
D |----------------------|--------------------|
A |----------------------|--------------------|
E |-0-0-0-0-0-0-0-0-0----|---0-0-0-0-0-0------|
A |-0-0-0-0-0-0-0-0-0----|---0-0-0-0-0-0------|

   --------------------------------------|
    S S E S S E S S E Q    E S S E S S E Q.
B |----------------------|------------------------|
F#|----------------------|------------------------|
D |----------------------|------------------------|
A |----------------------|------------------------|
E |-0-0-0-0-0-0-0-0-0----|---0-0-0-0-0-0----------|
A |-0-0-0-0-0-0-0-0-0----|---0-0-0-0-0-0----------|
  |
  |------------------------------------|
  | S S E S S E S S E Q    E S S E S S E E  E E
B |----------------------|------------------------|
F#|----------------------|------------------------|
D |----------------------|------------------------|
A |----------------------|------------------------|
E |-0-0-0-0-0-0-0-0-0----|---0-0-0-0-0-0-4--------|
A |-0-0-0-0-0-0-0-0-0----|---0-0-0-0-0-0----5-1---|

    D5
    PM-----------------------------------------
    S S E S S E S S E Q    E S S E S S E Q.
B |----------------------|--------------------|
F#|----------------------|--------------------|
D |----------------------|--------------------|
A |----------------------|--------------------|
E |-0-0-0-0-0-0-0-0-0----|---0-0-0-0-0-0------|
A |-0-0-0-0-0-0-0-0-0----|---0-0-0-0-0-0------|
  |
  | PM-----------------------------------------
  | S S E S S E S S E Q    E S S E S S E Q.
B |----------------------|--------------------|
F#|----------------------|--------------------|
D |----------------------|--------------------|
A |----------------------|--------------------|
E |-0-0-0-0-0-0-0-0-0----|---0-0-0-0-0-0------|
A |-0-0-0-0-0-0-0-0-0----|---0-0-0-0-0-0------|

   --------------------------------------|
    S S E S S E S S E Q    E S S E S S E Q.
B |----------------------|---------------------|
F#|----------------------|---------------------|
D |----------------------|---------------------|
A |----------------------|---------------------|
E |-0-0-0-0-0-0-0-0-0----|---0-0-0-0-0-0-------|
A |-0-0-0-0-0-0-0-0-0----|---0-0-0-0-0-0-------|
|
  |--------------------------------------|
  | S S E S S E S S E Q    E S S E S S E Q.
B |----------------------|---------------------|
F#|----------------------|---------------------|
D |----------------------|---------------------|
A |----------------------|---------------------|
E |-0-0-0-0-0-0-0-0-0----|---0-0-0-0-0-0-------|
A |-0-0-0-0-0-0-0-0-0----|---0-0-0-0-0-0-------|

    A/Eb
    PM-----------------------------------------
    S S E S S E S S Q.     +E  S S E S S H
B |----------------------|--------------------|
F#|----------------------|--------------------|
D |----------------------|--------------------|
A |----------------------|--------------------|
E |-0-0-0-0-0-0-0-0-0----|-(0)-0-0-0-0-0-0----|
A |-1-1-1-1-1-1-1-1-1----|-(1)-1-1-1-1-1-1----|
|
  | PM-----------------------------------------
  | S S E S S E S S Q.     +E  S S E S S H
B |----------------------|--------------------|
F#|----------------------|--------------------|
D |----------------------|--------------------|
A |----------------------|--------------------|
E |-0-0-0-0-0-0-0-0-0----|-(0)-0-0-0-0-0-0----|
A |-1-1-1-1-1-1-1-1-1----|-(1)-1-1-1-1-1-1----|

   ------------------------------------|
    S S E S S E S S Q.     +E  S S E S S  H
B |----------------------|------------------------|
F#|----------------------|------------------------|
D |----------------------|------------------------|
A |----------------------|---------------[3]b5----|
E |-0-0-0-0-0-0-0-0-0----|-(0)-0-0-0-0-0----------|
A |-1-1-1-1-1-1-1-1-1----|-(1)-1-1-1-1-1----------|
|
  |--------------------------------------|
  | S S E S S E S S Q.     +E  S S E S S  H
B |----------------------|------------------------|
F#|----------------------|------------------------|
D |----------------------|------------------------|
A |----------------------|------------------------|
E |-0-0-0-0-0-0-0-0-0----|-(0)-0-0-0-0-0--0-------|
A |-1-1-1-1-1-1-1-1-1----|-(1)-1-1-1-1-1--1-------|

    D5
    PM-----------------------------------------------
    S S E S S E S S E Q    E S S E S S E Q.
B |----------------------|--------------------------|
F#|----------------------|--------------------------|
D |----------------------|--------------------------|
A |----------------------|--------------------------|
E |-0-0-0-0-0-0-0-0-0----|---0-0-0-0-0-0------------|
A |-0-0-0-0-0-0-0-0-0----|---0-0-0-0-0-0------------|
|
  | PM---------------------------------|
  | S S E S S E S S E Q    E S S E S S E E  E  E
B |----------------------|--------------------------|
F#|----------------------|--------------------------|
D |----------------------|--------------------------|
A |----------------------|--------------------------|
E |-0-0-0-0-0-0-0-0-0----|---0-0-0-0-0-0-4----------|
A |-0-0-0-0-0-0-0-0-0----|---0-0-0-0-0-0----5-[1]b3-|

   --------------------------------------|
    S S E S S E S S E Q    E S S E S S E Q.
B |----------------------|---------------------|
F#|----------------------|---------------------|
D |----------------------|---------------------|
A |----------------------|---------------------|
E |-0-0-0-0-0-0-0-0-0----|---0-0-0-0-0-0-------|
A |-0-0-0-0-0-0-0-0-0----|---0-0-0-0-0-0-------|
|
  | PM-----------------------------------|
  | S S E S S E S S E Q    E S S E S S E Q.
B |----------------------|---------------------|
F#|----------------------|---------------------|
D |----------------------|---------------------|
A |----------------------|---------------------|
E |-0-0-0-0-0-0-0-0-0----|---0-0-0-0-0-0-------|
A |-0-0-0-0-0-0-0-0-0----|---0-0-0-0-0-0-------|

    D5
    W          +W           +W
B |----------|------------|--------|
F#|----------|------------|--------|
D |----------|------------|--------|
A |-0--------|-(0)--------|-(0)----|
E |-0--------|-(0)--------|-(0)----|
A |-0--------|-(0)--------|-(0)----|
|
  | W          +W           +W
B |----------|------------|--------|
F#|----------|------------|--------|
D |----------|------------|--------|
A |-0--------|-(0)--------|-(0)----|
E |-0--------|-(0)--------|-(0)----|
A |-0--------|-(0)--------|-(0)----|

     Mathcore Part
      Q=238
      N.C.
      E  E E  E E  E E E   E  E E  E E  E E E
B ||---------------------|--------------------|
F#||o-8h11---------------|-8h11---------------|
D ||-------7h10-7h10-----|------7h10-7h10-----|
A ||-----------------5h8-|----------------5h8-|
E ||o--------------------|--------------------|
A ||---------------------|--------------------|
|
  |   E  E E  E E  E E E   E  E E  E E  E E E
B ||---------------------|--------------------|
F#||o-8h11---------------|-8h11---------------|
D ||-------7h10-7h10-----|------7h10-7h10-----|
A ||-----------------5h8-|----------------5h8-|
E ||o--------------------|--------------------|
A ||---------------------|--------------------|

    E  E E  E E  E E E   E  E E  E E  E E E
B |--------------------|----------------------||
F#|-8h11---------------|-9h12----------------o||
D |------7h10-7h10-----|------8h11-8h11-------||
A |----------------5h8-|----------------6h9---||
E |--------------------|---------------------o||
A |--------------------|----------------------||
|
  | E  E E  E E  E E E   E  E E  E E  E E E
B |--------------------|----------------------||
F#|-8h11---------------|-9h12----------------o||
D |------7h10-7h10-----|------8h11-8h11-------||
A |----------------5h8-|----------------6h9---||
E |--------------------|---------------------o||
A |--------------------|----------------------||

      Q=261
      N.C.
       E E  E E E E E E    E E  E E E E E E
B ||--------------------|-------------------|
F#||o-11p8--------------|-11p8--------------|
D ||-------10p7-9p7-----|------10p7-9p7-----|
A ||----------------8p5-|---------------8p5-|
E ||o-------------------|-------------------|
A ||--------------------|-------------------|
|
  |    E E  E E E E E E    E E  E E E E E E
B ||--------------------|-------------------|
F#||o-11p8--------------|-11p8--------------|
D ||-------10p7-9p7-----|------10p7-9p7-----|
A ||----------------8p5-|---------------8p5-|
E ||o-------------------|-------------------|
A ||--------------------|-------------------|

     E E  E E E E E E    E E  E E  E E E E
B |-------------------|----------------------||
F#|-11p8--------------|-12p9----------------o||
D |------10p7-9p7-----|------11p8-10p8-------||
A |---------------8p5-|----------------9p6---||
E |-------------------|---------------------o||
A |-------------------|----------------------||
|
  |  E E  E E E E E E    E E  E E  E E E E
B |-------------------|----------------------||
F#|-11p8--------------|-12p9----------------o||
D |------10p7-9p7-----|------11p8-10p8-------||
A |---------------8p5-|----------------9p6---||
E |-------------------|---------------------o||
A |-------------------|----------------------||

 Hard To Hear Part
  Q=142
    N.C.                              D5EbGbG5D5GbF5Eb5
                                      PM------------|
    S S S S S S S S S S S S S S S S   E E E E E E E E
B |---------------------------------|-----------------|
F#|---------------------------------|-----------------|
D |---------------------------------|-----------------|
A |---------------------------------|-----------------|
E |---------------------------------|-0-1-4-5-0-4-3-1-|
A |-6h9-6h9-6h9-6h9-5h8-5h8-5h8-5h8-|-0-1-4-5-0-4-3-1-|
|
  |                                   PM------------|
  | W                                 E E E E E E E E
B |---------------------------------|-----------------|
F#|---------------------------------|-----------------|
D |---------------------------------|-----------------|
A |---------------------------------|-----------------|
E |---------------------------------|-0-1-4-5-0-4-3-1-|
A |---------------------------------|-0-1-4-5-0-4-3-1-|

    N.C.
    S S S S S S S S S S S S S S S S
B |-----------------------------------|
F#|-----------------------------------|
D |-----------------------------------|
A |-----------------------------------|
E |-----------------------------------|
A |-6h9-6h9-6h9-6h9-5h8-5h8-5h8-5h8---|
|
  | S S S S S S S S S S S S S S S S
B |-----------------------------------|
F#|-----------------------------------|
D |-----------------------------------|
A |-----------------------------------|
E |-----------------------------------|
A |-6h9-6h9-6h9-6h9-5h8-5h8-5h8-5h8---|

    D5EbGbG5D5GbF5Eb5 N.C.
    PM------------|
    E E E E E E E E    S    S S S S S S S  S    S S S S S S S
B |-----------------|-----------------------------------------|
F#|-----------------|-----------------------------------------|
D |-----------------|-----------------------------------------|
A |-----------------|-----------------------------------------|
E |-0-1-4-5-0-4-3-1-|-----------------------------------------|
A |-0-1-4-5-0-4-3-1-|--6h===9-6h9-6h9-6h9--5h===8-5h8-5h8-5h8-|
|
  | PM------------|
  | E E E E E E E E    H                   H
B |-----------------|-----------------------------------------|
F#|-----------------|-15------------------14------------------|
D |-----------------|-17b19---------------16b18---------------|
A |-----------------|-----------------------------------------|
E |-0-1-4-5-0-4-3-1-|-----------------------------------------|
A |-0-1-4-5-0-4-3-1-|-----------------------------------------|

    D5EbGbG5D5GbF5Eb5 N.C.
    PM------------|
    E E E E E E E E    S    S S S S S S S  S    S S S S S S S
B |-----------------|--------------------------------------------|
F#|-----------------|--------------------------------------------|
D |-----------------|--------------------------------------------|
A |-----------------|--------------------------------------------|
E |-0-1-4-5-0-4-3-1-|--------------------------------------------|
A |-0-1-4-5-0-4-3-1-|--6h===9-6h9-6h9-6h9--5h===8-5h8-5h8-5h8----|
|
  | PM------------|
  | E E E E E E E E    H                   H
B |-----------------|--------------------------------------------|
F#|-----------------|-15------------------18---------------------|
D |-----------------|-17b19---------------20b22------------------|
A |-----------------|--------------------------------------------|
E |-0-1-4-5-0-4-3-1-|--------------------------------------------|
A |-0-1-4-5-0-4-3-1-|--------------------------------------------|

    D5EbGbG5D5GbF5Eb5 D5EbGbG5D5GbF5Eb5
    PM------------------------------|
    E E E E E E E E   E E E E E E E E
B |-----------------|-----------------|
F#|-----------------|-----------------|
D |-----------------|-----------------|
A |-----------------|-----------------|
E |-0-1-4-5-0-4-3-1-|-0-1-4-5-0-4-3-1-|
A |-0-1-4-5-0-4-3-1-|-0-1-4-5-0-4-3-1-|
|
  | PM------------------------------|
  | E E E E E E E E   E E E E E E E E
B |-----------------|-----------------|
F#|-----------------|-----------------|
D |-----------------|-----------------|
A |-----------------|-----------------|
E |-0-1-4-5-0-4-3-1-|-0-1-4-5-0-4-3-1-|
A |-0-1-4-5-0-4-3-1-|-0-1-4-5-0-4-3-1-|

    D5 Eb5Gb5G5   D5EbF5GbD5EbGbG5  D5 Eb5Gb5G5   D5EbF5GbD5EbGb5   G5
    PM------------------------------------------------------|
    Q  Q  Q  Q    E E E E E E E E   Q  Q  Q  Q    E E E E E E  E    +E
B |-------------|-----------------|-------------|-----------------------|
F#|-------------|-----------------|-------------|-----------------------|
D |-------------|-----------------|-------------|-----------------------|
A |-------------|-----------------|-------------|-----------------------|
E |-0--1--4--5--|-0-1-3-4-0-1-4-5-|-0--1--4--5--|-0-1-3-4-0-1-[1]b3r(1)-|
A |-0--1--4--5--|-0-1-3-4-0-1-4-5-|-0--1--4--5--|-0-1-3-4-0-1-----------|
|
  | PM--------------------------------------------------------------|
  | Q  Q  Q  Q    E E E E E E E E   Q  Q  Q  Q    E E E E E E  E     E
B |-------------|-----------------|-------------|-----------------------|
F#|-------------|-----------------|-------------|-----------------------|
D |-------------|-----------------|-------------|-----------------------|
A |-------------|-----------------|-------------|-----------------------|
E |-0--1--4--5--|-0-1-3-4-0-1-4-5-|-0--1--4--5--|-0-1-3-4-0-1--4-----5--|
A |-0--1--4--5--|-0-1-3-4-0-1-4-5-|-0--1--4--5--|-0-1-3-4-0-1--4-----5--|

    D5 Eb5Gb5G5   D5EbF5GbD5EbGbG5  D5 Eb5Gb5G5   D5EbF5GbD5EbGbG5
    PM----------------------------------------------------------|
    Q  Q  Q  Q    E E E E E E E E   Q  Q  Q  Q    E E E E E E E E
B |-------------|-----------------|-------------|-----------------|
F#|-------------|-----------------|-------------|-----------------|
D |-------------|-----------------|-------------|-----------------|
A |-------------|-----------------|-------------|-----------------|
E |-0--1--4--5--|-0-1-3-4-0-1-4-5-|-0--1--4--5--|-0-1-3-4-0-1-4-5-|
A |-0--1--4--5--|-0-1-3-4-0-1-4-5-|-0--1--4--5--|-0-1-3-4-0-1-4-5-|
|
  | PM----------------------------------------------------------|
  | Q  Q  Q  Q    E E E E E E E E   Q  Q  Q  Q    E E E E E E E E
B |-------------|-----------------|-------------|-----------------|
F#|-------------|-----------------|-------------|-----------------|
D |-------------|-----------------|-------------|-----------------|
A |-------------|-----------------|-------------|-----------------|
E |-0--1--4--5--|-0-1-3-4-0-1-4-5-|-0--1--4--5--|-0-1-3-4-0-1-4-5-|
A |-0--1--4--5--|-0-1-3-4-0-1-4-5-|-0--1--4--5--|-0-1-3-4-0-1-4-5-|

   Intro Reprise
    Q=156
    D5  N.C.                                  G5D5EbGb5
    PM        PM        PM          PM        PM-------
    E S S S S E S S S S E S S   S S E S S S S E E E E
B |---------------------------|-----------------------|
F#|---------------------------|-----------------------|
D |---------------------------|-----------------------|
A |---------------------------|-----------------------|
E |-0-5-5-5-5---4-4-4-4---5-5-|-5-5---4-4-4-4-5-0-1-4-|
A |-0---------0---------0-----|-----0---------5-0-1-4-|
|
  | PM-------------------------------------------------
  | E E   Q     H               H             E E E E
B |---------------------------|-----------------------|
F#|---------------------------|-----------------------|
D |---------------------------|-----------------------|
A |---------------------------|-----------------------|
E |-0-------------------------|---------------5-0-1-4-|
A |-0-------------------------|---------------5-0-1-4-|

  N.C.                                      G5D5EbGb5
   -|         PM        PM          PM        PM----|
    E S S S S E S S S S E S S   S S E S S S S E E E E
B |---------------------------|--------------------------|
F#|---------------------------|--------------------------|
D |---------------------------|--------------------------|
A |---------------------------|--------------------------|
E |---5-5-5-5---4-4-4-4---5-5-|-5-5---4-4-4-4-5-0-1-4----|
A |-0---------0---------0-----|-----0---------5-0-1-4----|
|
  |-|         PM        PM          PM        PM----|
  | E S S S S E S S S S E S S   S S E S S S S E E E E
B |---------------------------|--------------------------|
F#|---------------------------|--------------------------|
D |---------------------------|--------------------------|
A |---------------------------|--------------------------|
E |---5-5-5-5---4-4-4-4---5-5-|-5-5---4-4-4-4-5-0-1-4----|
A |-0---------0---------0-----|-----0---------5-0-1-4----|

    N.C.                                      G5D5EbGb5
    PM        PM        PM          PM        PM-------
    E S S S S E S S S S E S S   S S E S S S S E E E E
B |---------------------------|-----------------------|
F#|---------------------------|-----------------------|
D |---------------------------|-----------------------|
A |---------------------------|-----------------------|
E |---5-5-5-5---4-4-4-4---5-5-|-5-5---4-4-4-4-5-0-1-4-|
A |-0---------0---------0-----|-----0---------5-0-1-4-|
|
  | PM        PM        PM          PM        PM-------
  | E S S S S E S S S S E S S   S S E S S S S E E E E
B |---------------------------|-----------------------|
F#|---------------------------|-----------------------|
D |---------------------------|-----------------------|
A |---------------------------|-----------------------|
E |---8-8-8-8---7-7-7-7---8-8-|-8-8---7-7-7-7-5-0-1-4-|
A |-0---------0---------0-----|-----0---------5-0-1-4-|

  N.C.                                      G5D5EbGb5
   -|         PM        PM          PM        PM----|
    E S S S S E S S S S E S S   S S E S S S S E E E E
B |---------------------------|--------------------------|
F#|---------------------------|--------------------------|
D |---------------------------|--------------------------|
A |---------------------------|--------------------------|
E |---5-5-5-5---4-4-4-4---5-5-|-5-5---4-4-4-4-5-0-1-4----|
A |-0---------0---------0-----|-----0---------5-0-1-4----|
|
  |-|         PM        PM          PM        PM----|
  | E S S S S E S S S S E S S   S S E S S S S E E E E
B |---------------------------|--------------------------|
F#|---------------------------|--------------------------|
D |---------------------------|--------------------------|
A |---------------------------|--------------------------|
E |---8-8-8-8---7-7-7-7---8-8-|-8-8---7-7-7-7-5-0-1-4----|
A |-0---------0---------0-----|-----0---------5-0-1-4----|

 Br00441 Outro Breakdown
    D5
    Gtr IV
    PM---------------------------------------------------------|
    S S E Q  S S E S S E   S S E S S E Q  S S E   Q  S S E S S E Q    W
B |----------------------|----------------------|-------------------|------|
F#|----------------------|----------------------|-------------------|------|
D |----------------------|----------------------|-------------------|------|
A |----------------------|----------------------|-------------------|------|
E |-0-0-0----0-0-0-0-0-0-|-0-0-0-0-0-0----0-0-0-|----0-0-0-0-0-0----|------|
A |-0-0-0----0-0-0-0-0-0-|-0-0-0-0-0-0----0-0-0-|----0-0-0-0-0-0----|------|
|
| Gtr V
  | PM-----------------------------------------------------------|
  | S S E Q  S S E S S E   S S E S S E Q  S S E   Q  S S E S S E Q    W
B |----------------------|----------------------|-------------------|------|
F#|----------------------|----------------------|-------------------|------|
D |----------------------|----------------------|-------------------|------|
A |----------------------|----------------------|-------------------|------|
E |-0-0-0----0-0-0-0-0-0-|-0-0-0-0-0-0----0-0-0-|----0-0-0-0-0-0----|------|
A |-0-0-0----0-0-0-0-0-0-|-0-0-0-0-0-0----0-0-0-|----0-0-0-0-0-0----|------|

    D5
    PM-------------------------------------------
    S S E Q  S S E S S E   S S E S S E Q  S S E
B |----------------------|----------------------|
F#|----------------------|----------------------|
D |----------------------|----------------------|
A |----------------------|----------------------|
E |-0-0-0----0-0-0-0-0-0-|-0-0-0-0-0-0----0-0-0-|
A |-0-0-0----0-0-0-0-0-0-|-0-0-0-0-0-0----0-0-0-|
|
  | PM-------------------------------------------
  | S S E Q  S S E S S E   S S E S S E Q  S S E
B |----------------------|----------------------|
F#|----------------------|----------------------|
D |----------------------|----------------------|
A |----------------------|----------------------|
E |-0-0-0----0-0-0-0-0-0-|-0-0-0-0-0-0----0-0-0-|
A |-0-0-0----0-0-0-0-0-0-|-0-0-0-0-0-0----0-0-0-|

                      C/GB/FBb/N.C.
   ---------------------------|
    Q  S S E S S E Q    Q  Q  Q   Q
B |-------------------|------------------|
F#|-------------------|------------------|
D |-------------------|------------------|
A |-------------------|------------------|
E |----0-0-0-0-0-0----|-3--2--1--[2]b4---|
A |----0-0-0-0-0-0----|-4--3--2----------|
|
  |---------------------------|
  | Q  S S E S S E Q    Q  Q  Q   Q
B |-------------------|------------------|
F#|-------------------|------------------|
D |-------------------|------------------|
A |-------------------|------------------|
E |----0-0-0-0-0-0----|-3--2--1--[2]b4---|
A |----0-0-0-0-0-0----|-4--3--2----------|

  D5
    PM-----------------------------------------------------------|
    S S E Q  S S E S S E   S S E S S E Q  S S E   Q  S S E S S E Q
B |----------------------|----------------------|-------------------|
F#|----------------------|----------------------|-------------------|
D |----------------------|----------------------|-------------------|
A |----------------------|----------------------|-------------------|
E |-0-0-0----0-0-0-0-0-0-|-0-0-0-0-0-0----0-0-0-|----0-0-0-0-0-0----|
A |-0-0-0----0-0-0-0-0-0-|-0-0-0-0-0-0----0-0-0-|----0-0-0-0-0-0----|
|
  | PM-----------------------------------------------------------|
  | S S E Q  S S E S S E   S S E S S E Q  S S E   Q  S S E S S E Q
B |----------------------|----------------------|-------------------|
F#|----------------------|----------------------|-------------------|
D |----------------------|----------------------|-------------------|
A |----------------------|----------------------|-------------------|
E |-0-0-0----0-0-0-0-0-0-|-0-0-0-0-0-0----0-0-0-|----0-0-0-0-0-0----|
A |-0-0-0----0-0-0-0-0-0-|-0-0-0-0-0-0----0-0-0-|----0-0-0-0-0-0----|

    N.C.
     S  S  S  S  S  S  S  S  S  S  S  S  S  S  S  S
B |-------------------------15h19p15----14h18p14-------|
F#|-12h15p12h15-11h14p11h14----------------------------|
D |----------------------------------16----------15----|
A |----------------------------------------------------|
E |----------------------------------------------------|
A |----------------------------------------------------|
|
  |  W
B |----------------------------------------------------|
F#|----------------------------------------------------|
D |----------------------------------------------------|
A |----------------------------------------------------|
E |----------------------------------------------------|
A |----------------------------------------------------|

  D5
    PM---------------------------------------------------------|
    S S E Q  S S E S S E   S S E S S E Q  S S E   Q  S S E S S E Q
B |----------------------|----------------------|-------------------|
F#|----------------------|----------------------|-------------------|
D |----------------------|----------------------|-------------------|
A |----------------------|----------------------|-------------------|
E |-0-0-0----0-0-0-0-0-0-|-0-0-0-0-0-0----0-0-0-|----0-0-0-0-0-0----|
A |-0-0-0----0-0-0-0-0-0-|-0-0-0-0-0-0----0-0-0-|----0-0-0-0-0-0----|
|
  | PM---------------------------------------------------------------
  | S S E Q  S S E S S E   S S E S S E Q  S S E   Q  S S E S S E Q
B |----------------------|----------------------|-------------------|
F#|----------------------|----------------------|-------------------|
D |----------------------|----------------------|-------------------|
A |----------------------|----------------------|-------------------|
E |-0-0-0----0-0-0-0-0-0-|-0-0-0-0-0-0----0-0-0-|----0-0-0-0-0-0----|
A |-0-0-0----0-0-0-0-0-0-|-0-0-0-0-0-0----0-0-0-|----0-0-0-0-0-0----|

    C/Gb              B/F                 Bb/E              B/F
     |--3--|  |--3--|  |--3--|  |--3---|   |--3--|  |--3--|  |--3--|  |--3---|
     S  S  S  S  S  S  S  S  S  S  S  +S   S  S  S  S  S  S  S  S  S  S  S  +S
B |-------------17h21p17------------------------------16h20p16------------------|
F#|----------19----------19------------------------18----------18---------------|
D |-------18----------------18------------------17----------------17------------|
A |----19----------------------19------------18----------------------18---------|
E |-21----------------------------21-(21)-20----------------------------20-(20)-|
A |-----------------------------------------------------------------------------|
|
  |---------------------------------------------------------|
  |  Q                 Q                   Q                 Q
B |-----------------------------------------------------------------------------|
F#|-----------------------------------------------------------------------------|
D |-----------------------------------------------------------------------------|
A |-----------------------------------------------------------------------------|
E |--3-----------------2-------------------1-----------------2------------------|
A |--4-----------------3-------------------2-----------------3------------------|

    D5
    PM
    Q  H.        W
B |------------|------*|
F#|------------|------*|
D |------------|------*|
A |------------|------*|
E |-0----------|------*|
A |-0----------|------*|
|
  | PM
  | Q  H.        W
B |------------|------*|
F#|------------|------*|
D |------------|------*|
A |------------|------*|
E |-0----------|------*|
A |-0----------|------*|


Duration Legend
---------------
W - whole; H - half; Q - quarter; E - 8th; S - 16th; T - 32nd; X - 64th; a - acciaccatura
+ - note tied to previous; . - note dotted; .. - note double dotted
Uncapitalized letters represent notes that are staccato (1/2 duration)
Irregular groupings are notated above the duration line
Duration letters will always appear directly above the note/fret number it represents the
duration for.  Duration letters with no fret number below them represent rests.  Multi-
bar rests are notated in the form Wxn, where n is the number of bars to rest for.  Low
melody durations appear below the staff

Tablature Legend
----------------
 h   - hammer-on
 p   - pull-off
 b   - bend
 pb  - pre-bend
 r   - bend release (if no number after the r, then release immediately)
 /\  - slide into or out of (from/to "nowhere")
 s   - legato slide
 S   - shift slide
  - natural harmonic
[n]  - artificial harmonic
n(n) - tapped harmonic
 ~   - vibrato
 tr  - trill
 T   - tap
 TP  - trem. picking
 PM  - palm muting
\n/  - tremolo bar dip; n = amount to dip
 \n  - tremolo bar down
 n/  - tremolo bar up
/n\  - tremolo bar inverted dip
 =   - hold bend; also acts as connecting device for hammers/pulls
 <>  - volume swell (louder/softer)
 x   - on rhythm slash represents muted slash
 o   - on rhythm slash represents single note slash

Misc Legend
-----------
 |  - bar
||  - double bar
||o - repeat start
o|| - repeat end
*|  - double bar (ending)
 :  - bar (freetime)
 $  - Segno
 &  - Coda
Tempo markers -  = BPM(8/16=s8/s16), where s8 = swing 8ths, s16 = swing 16ths
Suggest correction
comments
print report bad tab
7 comments total. Showing first comments.
+2 reply
Infinite__Death 10 Nov 06, 2008 06:10 PM

First....................sick song

0 reply
MusicLover#1 31 Jan 28, 2009 12:32 AM

i love this song..

thanks man.

0 reply
IbanezPro 10 May 08, 2009 03:37 AM

Hey dude sweet song

But there is one part that is slightly wrong

instead of playing

---------------17-14-16---------
------------------------18-19-18

Its

--------------17-14-16--------
----------------------18-15-17

guest
You may want to rate the tab now too:
select rating
Wanna post a correction for this tab? Suggest correction