Oops, an error
Loading. Please wait.

Meliae intro tab

version 1
version 1

Intro

Interactive

by Tiamat
851 views 1 this week
no commentswrite comment
1 2 3 4 5
3 more votes to show rating
add to favorites
×
Save as Personal and add changes to this tab that will be seen only by you. Learn more ›
×
You can save this tab as Personal to edit and correct it or add notes. All changes will be seen only by you. Learn more »
launch autoscroll
font size
0
reset
how to read this tab
guitar tuner
edit
Autoscroll
slow
fast
+/-
esc
set tempo
stop
Difficulty
----------------------------------------------------------------------------
                             MELIAE - Tiamat
----------------------------------------------------------------------------
Tabbed by: A. Maclachlan
Email: bruntonfan@gmail.com

Tuning: Standard

This is the intro solo to this beautiful song; I will post the main solo as a seperate tab.
Someone else has already tabbed the chords for the rest of the song.
Please listen to the song for the timing, etc.
This is my first tab, so please excuse any mistakes.

Notes:
When a bend (b) is indicated, this is almost always a full tone bend.
A bend and release (br) means bending up a full tone and releasing to the original note.
When a hammer (h) is indicated, this is almost always an 'instant'  hammer, ie, should 
not hear the first note.

e|--------------------------------------------------7----------------------|
B|------------------------------------------------7-----10-----------------|
G|-9(br)-7---7-9-7------------------7-9-7-----9(b)------------9(br)-7---7--|
D|--------------------7h9-7---7-9-------------------------------------9----|
A|--------------------------9----------------------------------------------|
E|-------------------------------------------------------------------------|

e|--------------------7--------7-10-7-10-12-10h12-----12(brbr)-10----10----|
B|------------------7---7-7-10------------------------------------12-------|
G|----------7--9(b)--------------------------------------------------------|
D|-9--7--9-----------------------------------------------------------------|
A|-------------------------------------------------------------------------|
E|-------------------------------------------------------------------------|

e|-------------------------------------------------------------------------|
B|-12-10h12--10\7-10--7----------------------------------------------------|
G|-----------------------9--7-----7--9(br)-7----7-7-9-7--------------------|
D|-----------------------------9-------------9-----------------------------|
A|-------------------------------------------------------------------------|
E|-------------------------------------------------------------------------|

e|-------------------------------------------------------------------------|
B|-------------------------------------------------------------------------|
G|-------------------------------------------------------------------------|
D|-7h9-7-------------------------------------------------------------------|
A|-------9-7-5---5-7-5-----------------------------------------------------|
E|-------------7-----------------------------------------------------------|

            
            
Suggest correction
Creating personal tab
Creating personal tab
You can edit any tab online and save it as your Personal.

You can edit, replace or remove any tab part or add personal notes – all changes will be seen only by you.

Personal tabs can be accessed anytime from any device, even offline.
Learn more »
Give kudos to tab author, rate the tab!
1 2 3 4 5
comments
print report bad tab
guest
Wanna post a correction for this tab? Suggest correction