Oops, an error
Loading. Please wait.

Gracias Por Existir Tab

version 1
version 1

Whole song

23 views 1 this week
no commentswrite comment
1 2 3 4 5
3 more votes to show rating
add to favorites
launch autoscroll
font size
0
reset
how to read this tab
guitar tuner
×
Best way to learn
"Gracias Por Existir"
Autoscroll
slow
fast
+/-
esc
set tempo
stop
La Version acustica esta 99.9% correcta ^^

[Intro]

e|---------0----------------0----------------0----------------0-------|
B|-----3-----3---3------3-----3---3------3-----3---3------3-----3---3-|
G|---0---0-----0------0---0-----0------0---0-----0------0---0-----0---|[x2]
D|-----------------------------------0--------------------------------|
A|-2----------------3---------------------------------3---------------|
E|--------------------------------------------------------------------|

[Verso]

Muchas veces las canciones de amor son un retrato
del animo en el que estamos
poesias bellas casi siempre son un buen remedio
contra tantas noches de soledad.

e|---------0----------------0----------------0----------------0-------|
B|-----3-----3---3------3-----3---3------3-----3---3------3-----3---3-|
G|---0---0-----0------0---0-----0------0---0-----0------0---0-----0---|[x4]
D|-----------------------------------0--------------------------------|
A|-2----------------3---------------------------------3---------------|
E|--------------------------------------------------------------------|

[Pre coro]

[1era Guitarra]

    Y al oir ...
e|--------------------------------------------------------------------|
B|---------0----------------0----------------3----------------3-------|
G|-----0-----0---0------0-----0---0------0-----0---0------0-----0---0-|
D|---2---2-----2------2---2-----2------2---2-----2------2---2-----2---|
A|-2----------------2----------------3----------------3---------------|
E|--------------------------------------------------------------------|

   Que al reir ...
e|--------------------------------------------------------------------|
B|---------0----------------0----------------3----------------3-------|
G|-----0-----0---0------0-----0---0------0-----0---0------0-----0---0-|
D|---2---2-----2------2---2-----2------2---2-----2------2---2-----2---|
A|-2----------------2----------------3----------------3---------------|
E|--------------------------------------------------------------------|

Em*         C
Siempre podria recordar

[2da Guitarra]

    Y al oir ...
e|--------------------------------------------------------------------|
B|---------0----------------0----------------0----------------0-------|
G|-----0-----0---0------0-----0---0------0-----0---0------0-----0---0-|
D|---2---2-----2------2---2-----2------2---2-----2------2---2-----2---|
A|-2----------------2----------------3----------------3---------------|
E|--------------------------------------------------------------------|

   Que al reir ...
e|--------------------------------------------------------------------|
B|---------0----------------0----------------0----------------0-------|
G|-----0-----0---0------0-----0---0------0-----0---0------0-----0---0-|
D|---2---2-----2------2---2-----2------2---2-----2------2---2-----2---|
A|-2----------------2----------------3----------------3---------------|
E|--------------------------------------------------------------------|

Em*         C
Siempre podria recordar

[Coro]

G                            Em*
Que aunque a la distancia estés
                     D*
puedo sentir tu corazón,
                       C
me gusta tanto oir tu voz,
         D*            G
nunca dejes de ser así
                   Em*
y siempre ries al saber
                        D*
que ya no hay nada que decir
                         C
que aun queda tanto por vivir,
    C               G
gracias por existir.

[Intro]

e|---------0----------------0----------------0----------------0-------|
B|-----3-----3---3------3-----3---3------3-----3---3------3-----3---3-|
G|---0---0-----0------0---0-----0------0---0-----0------0---0-----0---|
D|-----------------------------------0--------------------------------|
A|-2----------------3---------------------------------3---------------|
E|--------------------------------------------------------------------|

[Verso]

Con un dedo siempre escribo
tu nombre sobre la arena
viendo que el mar nunca lo borre,
no despego mi mirada ni un segundo de tu foto
asi podria quedar toda una vida.

e|---------0----------------0----------------0----------------0-------|
B|-----3-----3---3------3-----3---3------3-----3---3------3-----3---3-|
G|---0---0-----0------0---0-----0------0---0-----0------0---0-----0---|[x4]
D|-----------------------------------0--------------------------------|
A|-2----------------3---------------------------------3---------------|
E|--------------------------------------------------------------------|

[Pre coro]

[1era Guitarra]

    Respirar ...
e|--------------------------------------------------------------------|
B|---------0----------------0----------------3----------------3-------|
G|-----0-----0---0------0-----0---0------0-----0---0------0-----0---0-|
D|---2---2-----2------2---2-----2------2---2-----2------2---2-----2---|
A|-2----------------2----------------3----------------3---------------|
E|--------------------------------------------------------------------|

   Sin pensar ...
e|--------------------------------------------------------------------|
B|---------0----------------0----------------3----------------3-------|
G|-----0-----0---0------0-----0---0------0-----0---0------0-----0---0-|
D|---2---2-----2------2---2-----2------2---2-----2------2---2-----2---|
A|-2----------------2----------------3----------------3---------------|
E|--------------------------------------------------------------------|

Em*        C
No quedan cosas que contar.

[2da Guitarra]

    Respirar ...
e|--------------------------------------------------------------------|
B|---------0----------------0----------------0----------------0-------|
G|-----0-----0---0------0-----0---0------0-----0---0------0-----0---0-|
D|---2---2-----2------2---2-----2------2---2-----2------2---2-----2---|
A|-2----------------2----------------3----------------3---------------|
E|--------------------------------------------------------------------|

   Sin pensar ...
e|--------------------------------------------------------------------|
B|---------0----------------0----------------0----------------0-------|
G|-----0-----0---0------0-----0---0------0-----0---0------0-----0---0-|
D|---2---2-----2------2---2-----2------2---2-----2------2---2-----2---|
A|-2----------------2----------------3----------------3---------------|
E|--------------------------------------------------------------------|

Em*        C
No quedan cosas que contar.

[Coro]

G                            Em*
Que aunque a la distancia estés
                     D*
puedo sentir tu corazón,
                       C
me gusta tanto oir tu voz,
         D*            G
nunca dejes de ser así
                   Em*
y siempre ries al saber
                        D*
que ya no hay nada que decir
                         C
que aun queda tanto por vivir,
    C               G
gracias por existir.

[Interdulio]

    G                              Em
e|-----------------------------------------------------------|
B|-----------------------------------------------------------|
G|------------------------5/7-7-7----------------------------|
D|-5-5-5-5-7-7-7-5--5-5-5----------5-5-5-5-7-7-7-5--5-5--5p4-|
A|-----------------------------------------------------------|
E|-----------------------------------------------------------|

   Em                       Em
e|---------------------------------------------------|
B|-3-3-3-3-3-3--3-3-x-x-x-x-3-3-3-3-3-3--3-3-x-x-x-x-|
G|-0-0-0-0-0-0--0-0-x-x-x-x-0-0-0-0-0-0--0-0-x-x-x-x-|
D|-2-2-2-2-2-2--2-2-x-x-x-x-2-2-2-2-2-2--2-2-x-x-x-x-|
A|-2-2-2-2-2-2--2-2-x-x-x-x-2-2-2-2-2-2--2-2-x-x-x-x-|
E|-0-0-0-0-0-0--0-0-x-x-x-x-0-0-0-0-0-0--0-0-x-x-x-x-|

    G                              Em
e|-----------------------------------------------------------|
B|-----------------------------------------------------------|
G|------------------------4/7-7-7----------------------------|
D|-5-5-5-5-7-7-7-5--5-5-5----------5-5-5-5-7-7-7-5--5-5--5p4-|
A|-----------------------------------------------------------|
E|-----------------------------------------------------------|

   Em                       Em
e|---------------------------------------------------|
B|-3-3-3-3-3-3--3-3-x-x-x-x-3-3-3-3-3-3--3-3-x-x-x-x-|
G|-0-0-0-0-0-0--0-0-x-x-x-x-0-0-0-0-0-0--0-0-x-x-x-x-|
D|-2-2-2-2-2-2--2-2-x-x-x-x-2-2-2-2-2-2--2-2-x-x-x-x-|
A|-2-2-2-2-2-2--2-2-x-x-x-x-2-2-2-2-2-2--2-2-x-x-x-x-|
E|-0-0-0-0-0-0--0-0-x-x-x-x-0-0-0-0-0-0--0-0-x-x-x-x-|

   C          D*
e|------------------|
B|----------------3-|
G|-----0----0---2---|
D|---2----2---0-----|
A|-3----------------|
E|------------------|

[Coro]

G                            Em*
Que aunque a la distancia estés
                     D*
puedo sentir tu corazón,
                       C
me gusta tanto oir tu voz,
         D*            G
nunca dejes de ser así
                   Em*
y siempre ries al saber
                        D*
que ya no hay nada que decir
                         C
que aun queda tanto por vivir,
    C               G
gracias por existir.

______________________________________________________________________

NOTA:

      Em*              D*
e|-----0-----|  e|-----0-----|
B|-----3-----|  B|-----3-----|
G|-----0-----|  G|-----2-----|
D|-----2-----|  D|-----------|
A|-----2-----|  A|-----------|
E|-----------|  E|-----------|

______________________________________________________________________

spectro_punk5@

alaoz!
Suggest correction
Give kudos to tab author, rate the tab!
1 2 3 4 5
comments
print report bad tab
guest
You may want to rate the tab now too:
select rating
Wanna post a correction for this tab? Suggest correction