Oops, an error
Loading. Please wait.

Gracias Por Existir Tab

version 2
version 2

Whole song

29 views 1 this week
no commentswrite comment
1 2 3 4 5
3 more votes to show rating
add to favorites
launch autoscroll
font size
0
reset
how to read this tab
guitar tuner
Autoscroll
slow
fast
+/-
esc
set tempo
stop
Help us to improve Ultimate-Guitar.com Take our survey!
×
Aquí esta el acústico que pedían gente XD saludos pa m.. jaj
^(?^)+(^?)^  (^?)^^(?^)----fusión jajá_(^?^)_
si tienen dudas escriban a mi correo

[Intro]

e|---------0----------------0----------------0----------------0-------|
B|-----3-------3--------3-------3--------3-------3--------3-------3---|
G|---0---0---0---0----0---0---0---0----0---0---0---0----0---0---0---0-|[x2]
D|-----------------------------------0----------------0---------------|
A|-2----------------3-------------------------------------------------|
E|--------------------------------------------------------------------|

[Verso]

   Muchas    veces   las    canciones   de   amor  son  un   retrato
e|---------0----------------0----------------0----------------0-------|
B|-----3-------3--------3-------3--------3-------3--------3-------3---|
G|---0---0---0---0----0---0---0---0----0---0---0---0----0---0---0---0-|
D|-----------------------------------0----------------0---------------|
A|-2----------------3-------------------------------------------------|
E|--------------------------------------------------------------------|

Del    ánimo    en    el   que     estamos
e|---------0----------------0----------------0----------------0-------|
B|-----3-------3--------3-------3--------3-------3--------3-------3---|
G|---0---0---0---0----0---0---0---0----0---0---0---0----0---0---0---0-|
D|-----------------------------------0----------------0---------------|
A|-2----------------3-------------------------------------------------|
E|--------------------------------------------------------------------|

Poesías  bellas  casi  siempre  son  un  buen  remedio
e|---------0----------------0----------------0----------------0-------|
B|-----3-------3--------3-------3--------3-------3--------3-------3---|
G|---0---0---0---0----0---0---0---0----0---0---0---0----0---0---0---0-|
D|-----------------------------------0----------------0---------------|
A|-2----------------3-------------------------------------------------|
E|--------------------------------------------------------------------|

Contra tantas noches de soledad.          (Bien bajito)
e|---------0----------------0-----------------------------------------|
B|-----3-------3--------3-------3--------3-3-3-3----------------------|
G|---0---0---0---0----0---0---0---0----0------------------------------|
D|-----------------------------------0--------------------------------|
A|-2----------------3-------------------------------------------------|
E|--------------------------------------------------------------------|

[Pre coro]

             Y        al       oír...
e|--------------------------------------------------------------------|
B|-0-------0--------0-------0---------0-------0--------0-------0------|
G|-----1-------1--------1-------1---------0-------0--------0-------0--|
D|-2-2---2---2---2--2-2---2---2---2-----2---2---2---2----2---2---2---2|
A|------------------------------------2----------------2--------------|
E|--------------------------------------------------------------------|

          Que    al    reír...
e|--------------------------------------------------------------------|
B|-0-------0--------0-------0---------0-------0--------0-------0------|
G|-----1-------1--------1-------1---------0-------0--------0-------0--|
D|-2-2---2---2---2--2-2---2---2---2-----2---2---2---2----2---2---2---2|
A|------------------------------------2----------------2--------------|
E|--------------------------------------------------------------------|

Siempre podría recordar
e|-------------------|
B|---0---------------|
G|-0---------0----0--|
D|--------0------0---|
A|-3----3------------|
E|-------------------|

[Coro]

G                            Em
Que aunque a la distancia estés
                     D
Puedo sentir tu corazón,
                       C
Me gusta tanto oír tu voz,
         D            G
Nunca dejes de ser así
                   Em
Y siempre ríes al saber
                        D
Que ya no hay nada que decir
                       G
Que aun queda tanto por
    C         G
Vivir, gracias por existir.
   e|-0--------3---|
   B|-1---3----3-3-|
   G|-0--0-----0---|
   D|-2--------0---|
   A|-3--------2---|
   E|-0--------3---|

(Intro)
e|---------0----------------0----------------0----------------0-------|
B|-----3-------3--------3-------3--------3-------3--------3-------3---|
G|---0---0---0---0----0---0---0---0----0---0---0---0----0---0---0---0-|[x2]
D|-----------------------------------0----------------0---------------|
A|-2----------------3-------------------------------------------------|
E|--------------------------------------------------------------------|

[Verso]

Con     un      dedo      siempre        escribo
e|---------0----------------0----------------0----------------0-------|
B|-----3-------3--------3-------3--------3-------3--------3-------3---|
G|---0---0---0---0----0---0---0---0----0---0---0---0----0---0---0---0-|
D|-----------------------------------0----------------0---------------|
A|-2----------------3-------------------------------------------------|
E|--------------------------------------------------------------------|

Tu     nombre      sobre  la        arena
e|---------0----------------0----------------0----------------0-------|
B|-----3-------3--------3-------3--------3-------3--------3-------3---|
G|---0---0---0---0----0---0---0---0----0---0---0---0----0---0---0---0-|
D|-----------------------------------0----------------0---------------|
A|-2----------------3-------------------------------------------------|
E|--------------------------------------------------------------------|

Viendo  que   el   mar   nunca   lo    borre
e|---------0----------------0----------------0----------------0-------|
B|-----3-------3--------3-------3--------3-------3--------3-------3---|
G|---0---0---0---0----0---0---0---0----0---0---0---0----0---0---0---0-|
D|-----------------------------------0----------------0---------------|
A|-2----------------3-------------------------------------------------|
E|--------------------------------------------------------------------|

No  despego   mi   mirada  ni  un  segundo  de  tu  foto
e|---------0----------------0----------------0----------------0-------|
B|-----3-------3--------3-------3--------3-------3--------3-------3---|
G|---0---0---0---0----0---0---0---0----0---0---0---0----0---0---0---0-|
D|-----------------------------------0----------------0---------------|
A|-2----------------3-------------------------------------------------|
E|--------------------------------------------------------------------|

Así  podría  quedar  toda  una  vida
e|---------0----------------0-----------------------------------------|
B|-----3-------3--------3-------3--------3-3-3-3----------------------|
G|---0---0---0---0----0---0---0---0----0------------------------------|
D|-----------------------------------0--------------------------------|
A|-2----------------3-------------------------------------------------|
E|--------------------------------------------------------------------|

[Pre coro]

           Respirar...
e|--------------------------------------------------------------------|
B|-0-------0--------0-------0---------0-------0--------0-------0------|
G|-----1-------1--------1-------1---------0-------0--------0-------0--|
D|-2-2---2---2---2--2-2---2---2---2-----2---2---2---2----2---2---2---2|
A|------------------------------------2----------------2--------------|
E|--------------------------------------------------------------------|

          Sin pensar...
e|--------------------------------------------------------------------|
B|-0-------0--------0-------0---------0-------0--------0-------0------|
G|-----1-------1--------1-------1---------0-------0--------0-------0--|
D|-2-2---2---2---2--2-2---2---2---2-----2---2---2---2----2---2---2---2|
A|------------------------------------2----------------2--------------|
E|--------------------------------------------------------------------|

No quedan cosas que contar
e|-------------------|
B|---0---------------|
G|-0---------0----0--|
D|--------0------0---|
A|-3----3------------|
E|-------------------|


[Coro]

G                            Em
Que aunque a la distancia estés
                     D
Puedo sentir tu corazón,
                       C
Me gusta tanto oír tu voz,
         D            G
Nunca dejes de ser así
                   Em
Y siempre ríes al saber
                        D
Que ya no hay nada que decir

Que aun queda tanto por

Vivir, gracias por existir.
   e|-0--------3---|
   B|-1---3----3-3-|
   G|-0--0-----0---|
   D|-2--------0---|
   A|-3--------2---|
   E|-0--------3---|

(Solano: puntea y rasguea SOL a la vez)

                                             rasgueo: 7v   4v   9v
e|-x-----3-----3-----3---------x-----3-----3---3------0----x----0-|
B|-3-----3-----3-----3-----3---3-----3-----3---3------5----x----5-|
G|-0-0h0-2-2-2-0-0h0-0-2/4-----0-0h0-2-2-2-0-0h0-1-0--5----x----5-|
D|-0---------------------------0----------------------4----x----4-|
A|----------------------------------------------------5----x----5-|
E|----------------------------------------------------0----x----0-|

                                                 rasgueo: 7v  4v  9v
e|---x-----3-----3-----3-----------x-----3-----3---3------0---x---0-|
B|---3-----3-----3-----3-----3-----3-----3-----3---3------5---x---5-|
G|-0h0-0h0-2-2-2-0-0h0-0-2/4-----0h0-0h0-2-2-2-0-0h0-1-0--5---x---5-|
D|---0-----------------------------0----------------------4---x---4-|
A|--------------------------------------------------------5---x---5-|
E|--------------------------------------------------------0---x---0-|


e|--------------------|
B|-----0-------3------|
G|-0---------0------0-|
D|---0-----0------0---|
A|-3----3-------------|
E|--------------------|


[Coro]

G                            Em
Que aunque a la distancia estés
                     D
Puedo sentir tu corazón,
                       C
Me gusta tanto oír tu voz,
         D            G
Nunca dejes de ser así
                   Em
Y siempre ríes al saber
                        D
Que ya no hay nada que decir
                       G
Que aun queda tanto por
     C        G
Vivir, gracias siempre por existir.
   e|-0--------3---------3-|
   B|-1---3----3-3-------3-|
   G|-0--0-----0---------0-|
   D|-2--------0-----------|
   A|-3--------2-----------|
   E|-0--------3-----------|
Suggest correction
Give kudos to tab author, rate the tab!
1 2 3 4 5
comments
print report bad tab
guest
You may want to rate the tab now too:
select rating
Wanna post a correction for this tab? Suggest correction