Oops, an error
Loading. Please wait.

Demasiado Tarde Tab

version 2
version 2

Whole song

31 views 3 this week
no commentswrite comment
1 2 3 4 5
3 more votes to show rating
add to favorites
launch autoscroll
font size
0
reset
how to read this tab
guitar tuner
×
Best way to learn
"Demasiado Tarde"
Autoscroll
slow
fast
+/-
esc
set tempo
stop
E5
si ahora quieres volver
E5
si ahoras sientes otra vez

|-----------------------------------------------------|
|--9--------------------------------------------------|
|--x-8-9-11-13-11-9-8---------------------------------|
|--6-x-x-x--x--x--x-x---------------------------------|
|----6-7-9--11-9--7-6---------------------------------|
|-----------------------------------------------------|

E5
si ya te arrepentiste
E5
sia hora gritas que me kieres

|-----------------------------------------------------|
|--9--------------------------------------------------|
|--x-8-9-11-13-11-9-8---------------------------------|
|--6-x-x-x--x--x--x-x---------------------------------|
|----6-7-9--11-9--7-6---------------------------------|
|-----------------------------------------------------|

[Pre Coro]

A5              B5
Como yo te kise como yo te ame
         E5            D#5      C#5       B5     A5   B5
ya te olvide ya es muy tarde de pensar en regresar   ahora sabras lo
|----------------------------------------------------------------|
|--12--10--9--10--9------9---------------------------------------|
|--------------------11-----11--9--11--9--8--------8-------------|
|--------------------------------------------11------------------|
|----------------------------------------------------------------|
|----------------------------------------------------------------|

[Coro]

E5     A5     C#5   B5
que se siente vivir asi solo
E5       C#5         A5           B5
llorando todo el dia por tu amor en mi habitacion

A5 C#5         B5       A5    C#5      B5    A5   B5
     hasta que salga el sol    muriendome de odio acostado en un rincon
|---------------------------------------------------|
|---9 * --------------------------------------------|
|---x----------11 * -----9 * -------11--------------|
|---6----------x---------x----------x---------------|
|--------------9---------7----------9---------------|
|---------------------------------------------------|


[Solo]

   E5        A5         C#5      B5
|----------------------------------------------|
|------------9-------------------9-------------|
|--9--99-11---11-9-8----9--99-11---11-9-11-----|
|----------------------------------------------|
|----------------------------------------------|
|----------------------------------------------|

    E5             A5   C#5
|---------------------------------------------|
|---------------------------------------------|
|--------------8-9-11-13-14-13-14-13-11-13-11-|
|-----6-7-9-11--------------------------------|
|-7-9-----------------------------------------|
|---------------------------------------------|

  B5                      A5  B5
|------------------------------------|
|------------------------------------|
|----11----------------------8-------|
|-14----14-13-14-13-11------9--------|
|----------------------14------------|
|------------------------------------|

[Verso]

E5
si piensas que es muy facil regresar              |--------------|
C#5                                               |--------------|
pero no sabes lo que me isiste pasar              |-9*-11*-13*---|
A5                   B5                           |--------------|
todas esas noches frias no las voy a olvidar      |--------------|
                                                  |--------------|


E5                  C#5                     A5
y ahora vienes y me hablas como si no paso nada
                  B5
solo dices que me kieres

[Pre Coro]

A5              B5
Como yo te kise como yo te ame
         E5            D#5      C#5       B5     A5   B5
ya te olvide ya es muy tarde de pensar en regresar   ahora sabras lo
|----------------------------------------------------------------|
|--12--10--9--10--9------9---------------------------------------|
|--------------------11-----11--9--11--9--8--------8-------------|
|--------------------------------------------11------------------|
|----------------------------------------------------------------|
|----------------------------------------------------------------|


[Coro]

E5     A5     C#5   B5
que se siente vivir asi solo
E5       C#5         A5           B5
llorando todo el dia por tu amor en mi habitacion

A5 C#5         B5       A5    C#5      B5    A5   B5
     hasta que salga el sol    muriendome de odio acostado en un rincon
|---------------------------------------------------|
|---9 * --------------------------------------------|
|---x----------11 * -----9 * -------11--------------|
|---6----------x---------x----------x---------------|
|--------------9---------7----------9---------------|
|---------------------------------------------------|

[Interdulio]

E5 A5 C#5 B5
E5 A5 C#5 B5
A5 B5  E5

[EL BAJO ESTA EN MEDIO TONO ABAJO]

F#|---------------------------------|---------------------------------|
C#|---------------------------------|---------------------------------|
G#|-------3-----3---3-----3-----3---|-------3-----3---3-----3-----3---|
D#|-1-1-1---1-1---1---1-1---1-1---1-|-0-0-0---0-0---0---0-0---0-0---0-|

F#|---------------------------------|---------------------------------|
C#|-------7-----5---7-----7-----7---|-------3-----3---------5-----5---|
G#|-5-5-5---5-5---5---5-5---5-5---5-|-1-1-1---1-1---1-3-3-3---3-3---3-|
D#|---------------------------------|---------------------------------|

Es demasiado tarde lo hechaste todo a perder

E5
Es demasiado tarde
C#5
Es demasiado tarde
A5
Es demasiado tarde
B5
lo hechaste todo a perder


fin.....

 una wena cancion esta 90% bien wenu eso creo califiqen..:D
Suggest correction
Give kudos to tab author, rate the tab!
1 2 3 4 5
comments
print report bad tab
guest
You may want to rate the tab now too:
select rating
Wanna post a correction for this tab? Suggest correction