Oops, an error
Loading. Please wait.

Vuelve Conmigo Tab

62 views 1 this week
no commentswrite comment
1 2 3 4 5
3 more votes to show rating
add to favorites
launch autoscroll
font size
0
reset
how to read this tab
guitar tuner
Autoscroll
slow
fast
+/-
esc
set tempo
stop
Help us to improve Ultimate-Guitar.com Take our survey!
×
esta cancion esta en re mayor y este es el requinto:
ENVIADO POR JOSE.
            D                   Bm              G       A      D
1.--------2-2-----2-2--3-5-3-2-----2-2-3-5-3-2------2-2-0-2-3-2-
2.--------3-3-----3-3--5-7-5-3--3--3-3-5-7-5-3--3---3-3-2-3-5-3-
3.---2-2------------------------4---------------4---------------
4.--------------------------------------------------------------
5.--------------------------------------------------------------
6.--------------------------------------------------------------


CON SOL MAYOR SERIA ASI:
          G                   Em                C      D      G
1.-------7-7---7-7-8--10-8--7-----7-7-8--10-8------7-7-5-8--7----
2.-------8-8---8-8-10-12-10-8--8--8-8-10-12-10--8--8-8-7-10-8----
3.--7-7------------------------9----------------9----------------
4.---------------------------------------------------------------
5.---------------------------------------------------------------
6.---------------------------------------------------------------

D                           Bm
Oh, mi alma yo te quiero decir
                 G                A
Que desde que te vi en mi mente has vivido
         D                    Bm
Yo que fui aventurero y jugador
              G                A
Y que por ti hoy he cambiado mi destino
     D                     Bm
Tus besos, tu mirada y tu voz
                             G
Me han hecho esclavo de tu amor
                A
Y limosnero de tu cariño
            D               Bm
Por eso ahora te vengo a cantar
                G                    A
Mi triste realidad y escucha lo que digo
            D                  A
Que ya no puedo vivir sin tu amor
                G                A
Vivir con tu adios, es no estar vivo
       D                    Bm
Es horrible sentir la tentacion
                 G               A
De noche esta pasion, vuelve conmigo
          D                 Bm
Ya he querido arrancarte de mi
                         G               A
Lo intento y me hace sufrir, vuelvo a decirlo
            D                 Bm
Que ya no puedo vivir sin tu amor
               G-A               D
Vivir con tu adios, es no estar vivo...
Suggest correction
Give kudos to tab author, rate the tab!
1 2 3 4 5
comments
print report bad tab
guest
You may want to rate the tab now too:
select rating
Wanna post a correction for this tab? Suggest correction