Oops, an error
Loading. Please wait.

El Bastón Del Diablo Bass Tab

version 1
version 1

Whole song

Interactive

2,117 views 1 this week
no commentswrite comment
1 2 3 4 5
please rate
add to favorites
launch autoscroll
font size
0
reset
guitar tuner
Autoscroll
slow
fast
+/-
esc
set tempo
stop
Help us to improve Ultimate-Guitar.com Take our survey!
×
#----------------------------------PLEASE NOTE---------------------------------#
#This file is the author's own work and represents their interpretation of the #
#song. You may only use this file for private study, scholarship, or research. #
#------------------------------------------------------------------------------#

EL BASTON DEL DIABLO (Bassline)
As recorded by Tierra Santa
(From the 1999 Album LEGENDARIO)

Transcribed by Guillaume Bédard
	



Gtr I (E A D G) - 'Untitled'

 Intro
 4/4
  Gtr I
  Wx7          H    Q  Q
|------------|------------|
|------------|------------|
|------------|------2--0--|
|------------|------------|


    H..       E   H    Q  E E   H..       E   H    Q  Q
||--------------|-------------|-------------|------------|
||o-------------|-------------|-------------|------------|
||o-------------|-----------0-|-------------|------5--4--|
||--2---------0-|-2----2--4---|-0---------0-|-0----------|


                                               1.,2.          3.
  H..       E   H.      E E   H    +E  E E E   H    Q  Q   3x W
|-------------|-------------|----------------|-------------||------|
|-------------|-------------|----------------|------------o||------|
|-5---------4-|-5-------4-5-|-4----(4)-5-4-2-|-4----2--0--o||-4----|
|-------------|-------------|----------------|-------------||------|


 Bridge
  Q=169
  E H..         H.      Q    E H..         H.      Q
|-------------|------------|-------------|-------------|
|-------------|------------|-------------|-------------|
|-------------|------------|-------------|-------------|
|-2-----------|---------2--|-0-----------|---------0---|


  H..       E   W          H..       E   +W
|-------------|----------|-------------|--------|
|-------------|----------|-------------|--------|
|-5---------5-|----------|-2---------4-|-(4)----|
|-------------|----------|-------------|--------|


  E E E E E E E E   E E E E E E E E   E E E E E E E E   E E E E E E E E
|-----------------|-----------------|-----------------|------------------|
|-----------------|-----------------|-----------------|------------------|
|-----------------|-----------------|-----------------|------------------|
|-2-2-2-2-2-2-2-2-|-2-2-2-2-2-2-2-2-|-0-0-0-0-0-0-0-0-|-0-0-0-0-0-0-0-0--|


  E E E E E E E E   E E E E E E E E   E E E E E E E E   E E E E E E E E
|-----------------|-----------------|-----------------|------------------|
|-----------------|-----------------|-----------------|------------------|
|-5-5-5-5-5-5-5-5-|-5-5-5-5-5-5-5-5-|-2-2-2-2-2-2-2-4-|-4-4-4-4-4-4-4-4--|
|-----------------|-----------------|-----------------|------------------|


   Verse
    E E E E E E E E   E E E E E E E E   E E E E E E E E   E E E E E E E E
||------------------|-----------------|-----------------|-----------------|
||o-----------------|-----------------|-----------------|-----------------|
||o-----------------|-----------------|-----------------|-----------------|
||--2-2-2-2-2-2-2-2-|-2-2-2-2-2-2-2-2-|-0-0-0-0-0-0-0-0-|-0-0-0-0-0-0-0-0-|


  E S S S S E S S S S E S S   E S S S S E S S S S E S S
|---------------------------|---------------------------|
|---------------------------|---------------------------|
|-5-5-5-5-5-5-5-5-5-5-5-5-5-|-5-5-5-5-5-5-5-5-5-5-5-5-5-|
|---------------------------|---------------------------|


  E S S S S E S S S S E S S   E E E E E E E E
|---------------------------|---------------------||
|---------------------------|---------2----------o||
|-4-4-4-4-4-4-4-4-4-4-4-4-4-|-4-2-4-5---5-4-0----o||
|---------------------------|---------------------||


 Chorus
  E S S S S E S S S S E S S   E S S S S Q.   Q
|---------------------------|-------------------|
|---------------------------|-------------------|
|---------------------------|-------------------|
|-2-2-2-2-2-2-2-2-2-2-2-2-2-|-2-2-2-2-2-2----0--|


  E S S S S E S S S S E S S   E S S S S E S S S S E S S
|---------------------------|----------------------------|
|---------------------------|----------------------------|
|-5-5-5-5-5-5-5-5-5-5-5-5-5-|-5-5-5-5-5-5-5-5-5-5-5-5-5--|
|---------------------------|----------------------------|


  E S S S S E S S S S E S S   E S S S S E S S S S Q    W          H    Q  Q
|---------------------------|------------------------|----------|--------------|
|---------------------------|------------------------|----------|--------------|
|-2-2-2-2-2-2-2-2-2-2-2-2-2-|-2-2-2-2-2-2-2-2-2-2-2--|----------|-4------------|
|---------------------------|------------------------|-5--------|------5--4----|


  E S S S S E S S S S E S S   E S S S S Q.   Q
|---------------------------|-------------------|
|---------------------------|-------------------|
|---------------------------|-------------------|
|-2-2-2-2-2-2-2-2-2-2-2-2-2-|-2-2-2-2-2-2----0--|


  E S S S S E S S S S E S S   E S S S S E S S S S E S S
|---------------------------|----------------------------|
|---------------------------|----------------------------|
|-5-5-5-5-5-5-5-5-5-5-5-5-5-|-5-5-5-5-5-5-5-5-5-5-5-5-5--|
|---------------------------|----------------------------|


  E S S S S E S S S S E S S   E S S S S E S S S S Q
|---------------------------|------------------------|
|---------------------------|------------------------|
|-2-2-2-2-2-2-2-2-2-2-2-2-2-|-2-2-2-2-2-2-2-2-2-2-2--|
|---------------------------|------------------------|


  W          W          +W
|----------|----------|--------|
|----------|----------|--------|
|----------|-4--------|-(4)----|
|-5--------|----------|--------|


 Bridge
  E E E E E E E E   E E E E E E E E   E E E E E E E E   E E E E E E E E
|-----------------|-----------------|-----------------|------------------|
|-----------------|-----------------|-----------------|------------------|
|-----------------|-----------------|-----------------|------------------|
|-2-2-2-2-2-2-2-2-|-2-2-2-2-2-2-2-2-|-0-0-0-0-0-0-0-0-|-0-0-0-0-0-0-0-0--|


  E E E E E E E E   E E E E E E E E   E E E E E E E E   E E E E E E E E
|-----------------|-----------------|-----------------|------------------|
|-----------------|-----------------|-----------------|------------------|
|-5-5-5-5-5-5-5-5-|-5-5-5-5-5-5-5-5-|-2-2-2-2-2-2-2-4-|-4-4-4-4-4-4-4-4--|
|-----------------|-----------------|-----------------|------------------|


   Guitar Solo
    E E E E E E E E   E E E E E E E E   +E  E E E E E E E   E E E E E E E E
||------------------|-----------------|-------------------|-----------------|
||o-----------------|-----------------|-------------------|-----------------|
||o-----------------|-----------------|-------------------|---------------5-|
||--2-2-2-2-2-2-2-2-|-2-2-2-2-2-2-2-0-|-(0)-0-0-0-0-0-0-0-|-0-0-0-0-0-0-0---|


  +E  E E E E E E E   E E E E E E E E
|-------------------|-----------------|
|-------------------|-----------------|
|-(5)-5-5-5-5-5-5-5-|-5-5-5-5-5-5-5-2-|
|-------------------|-----------------|


                      1.,2.
  +E  E E E E E E E   +E  E E E E E E E   3x
|-------------------|---------------------||
|-------------------|--------------------o||
|-(2)-2-2-2-2-2-2-4-|-(4)-4-4-4-4-4-4----o||
|-------------------|-----------------2---||


  3.
  E E E E E E E E   E E E E E E E E   E E E E E E E E
|-----------------|-----------------|-----------------|
|-----------------|-----------------|-----------------|
|-4-4-4-4-4-4-4-5-|-5-5-5-5-5-5-5-7-|-7-7-7-7-7-7-7-9-|
|-----------------|-----------------|-----------------|


  E E E E E E E E   E E E E E E E E   +E  E E E E E E E   +E  E E E E E E E
|-----------------|-----------------|-------------------|--------------------|
|-----------------|-------6-7-6-----|-------------------|--------------------|
|-9-9-9-9-9-9-9-9-|-9-7-9-------7-5-|-(5)-5-5-5-5-5-5-7-|-(7)-7-7-7-7-7-7----|
|-----------------|-----------------|-------------------|-----------------9--|


  +E  E E E E E E E   E E E E E E E E   +E  E E E E E E E   +E  E E E E E E E
|-------------------|-----------------|-------------------|--------------------|
|-------------------|-----------------|-------------------|--------------------|
|-------------------|-------6-7-6---5-|-(5)-5-5-5-5-5-5-7-|-(7)-7-7-7-7-7-7-9--|
|-(9)-9-9-9-9-9-9-9-|-9-7-9-------7---|-------------------|--------------------|


  +E  E E E E E E E   E E E E E E E E   +E  E E E E E E E   +E  E E E E E E E
|-------------------|-----------------|-------------------|--------------------|
|-------------------|-------6-7-6-----|-------------------|--------------------|
|-(9)-9-9-9-9-9-9-9-|-9-7-9-------7-5-|-(5)-5-5-5-5-5-5-7-|-(7)-7-7-7-7-7-7----|
|-------------------|-----------------|-------------------|-----------------9--|


  +E  E E E E E E E   E E E E E E E E   +W           +W
|-------------------|-----------------|------------|--------|
|-------------------|-----------------|------------|--------|
|-------------------|-------6-7-6-----|------------|--------|
|-(9)-9-9-9-9-9-9-9-|-9-7-9-------7-2-|-(2)--------|-(2)----|


  W          +W
|----------|--------|
|----------|--------|
|----------|--------|
|-2--------|-(2)----|


   Verse
    E E E E E E E E   E E E E E E E E   E E E E E E E E   E E E E E E E E
||------------------|-----------------|-----------------|-----------------|
||o-----------------|-----------------|-----------------|-----------------|
||o-----------------|-----------------|-----------------|-----------------|
||--2-2-2-2-2-2-2-2-|-2-2-2-2-2-2-2-2-|-0-0-0-0-0-0-0-0-|-0-0-0-0-0-0-0-0-|


  E S S S S E S S S S E S S   E S S S S E S S S S E S S
|---------------------------|---------------------------|
|---------------------------|---------------------------|
|-5-5-5-5-5-5-5-5-5-5-5-5-5-|-5-5-5-5-5-5-5-5-5-5-5-5-5-|
|---------------------------|---------------------------|


  E S S S S E S S S S E S S   E E E E E E E E
|---------------------------|---------------------||
|---------------------------|---------2----------o||
|-4-4-4-4-4-4-4-4-4-4-4-4-4-|-4-2-4-5---5-4-0----o||
|---------------------------|---------------------||


 Chorus
  E S S S S E S S S S E S S   E S S S S Q.   Q
|---------------------------|-------------------|
|---------------------------|-------------------|
|---------------------------|-------------------|
|-2-2-2-2-2-2-2-2-2-2-2-2-2-|-2-2-2-2-2-2----0--|


  E S S S S E S S S S E S S   E S S S S E S S S S E S S
|---------------------------|----------------------------|
|---------------------------|----------------------------|
|-5-5-5-5-5-5-5-5-5-5-5-5-5-|-5-5-5-5-5-5-5-5-5-5-5-5-5--|
|---------------------------|----------------------------|


  E S S S S E S S S S E S S   E S S S S E S S S S Q    W          H    Q  Q
|---------------------------|------------------------|----------|--------------|
|---------------------------|------------------------|----------|--------------|
|-2-2-2-2-2-2-2-2-2-2-2-2-2-|-2-2-2-2-2-2-2-2-2-2-2--|----------|-4------------|
|---------------------------|------------------------|-5--------|------5--4----|


  E S S S S E S S S S E S S   E S S S S Q.   Q
|---------------------------|-------------------|
|---------------------------|-------------------|
|---------------------------|-------------------|
|-2-2-2-2-2-2-2-2-2-2-2-2-2-|-2-2-2-2-2-2----0--|


  E S S S S E S S S S E S S   E S S S S E S S S S E S S
|---------------------------|----------------------------|
|---------------------------|----------------------------|
|-5-5-5-5-5-5-5-5-5-5-5-5-5-|-5-5-5-5-5-5-5-5-5-5-5-5-5--|
|---------------------------|----------------------------|


  E S S S S E S S S S E S S   E S S S S E S S S S Q    W          W
|---------------------------|------------------------|----------|------|
|---------------------------|------------------------|----------|------|
|-2-2-2-2-2-2-2-2-2-2-2-2-2-|-2-2-2-2-2-2-2-2-2-2-2--|----------|-4----|
|---------------------------|------------------------|-5--------|------|


  E S S S S E S S S S E S S   E S S S S Q.   Q
|---------------------------|-------------------|
|---------------------------|-------------------|
|---------------------------|-------------------|
|-2-2-2-2-2-2-2-2-2-2-2-2-2-|-2-2-2-2-2-2----0--|


  E S S S S E S S S S E S S   E S S S S E S S S S E S S
|---------------------------|----------------------------|
|---------------------------|----------------------------|
|-5-5-5-5-5-5-5-5-5-5-5-5-5-|-5-5-5-5-5-5-5-5-5-5-5-5-5--|
|---------------------------|----------------------------|


  E S S S S E S S S S E S S   E S S S S E S S S S Q
|---------------------------|------------------------|
|---------------------------|------------------------|
|-2-2-2-2-2-2-2-2-2-2-2-2-2-|-2-2-2-2-2-2-2-2-2-2-2--|
|---------------------------|------------------------|


  W          E S S S S E S S S S E S S
|----------|---------------------------|
|----------|---------------------------|
|----------|-4-4-4-4-4-4-4-4-4-4-4-4-4-|
|-5--------|---------------------------|


  E S S S S E S S S S E S S   E S S S S E S S S S E S S
|---------------------------|---------------------------|
|---------------------------|---------------------------|
|-4-4-4-4-4-4-4-4-4-4-4-4-4-|-4-4-4-4-4-4-4-4-4-4-4-4-4-|
|---------------------------|---------------------------|


  E S S S S E S S S S E S S
|-----------------------------|
|-----------------------------|
|-4-4-4-4-4-4-4-4-4-4-4-4-4---|
|-----------------------------|


   Outro
    E E E E E E E E   E E E E E E E E   E E E E E E E E   E E E E E E E E
||------------------|-----------------|-----------------|-----------------|
||o-----------------|-----------------|-----------------|-----------------|
||o-----------------|-----------------|-----------------|-----------------|
||--2-2-2-2-2-2-2-2-|-2-2-2-2-2-2-2-2-|-0-0-0-0-0-0-0-0-|-0-0-0-0-0-0-0-0-|


  E E E E E E E E   E E E E E E E E   E E E E E E E E   E E E E E E E E   4x
|-----------------|-----------------|-----------------|-------------------||
|-----------------|-----------------|-----------------|------------------o||
|-5-5-5-5-5-5-5-5-|-5-5-5-5-5-5-5-5-|-2-2-2-2-2-2-2-4-|-4-4-4-4-4-4-4-4--o||
|-----------------|-----------------|-----------------|-------------------||


  W
|------*|
|------*|
|------*|
|-2----*|



Duration Legend
---------------
W - whole; H - half; Q - quarter; E - 8th; S - 16th; T - 32nd; X - 64th; a - acciaccatura
+ - note tied to previous; . - note dotted; .. - note double dotted
Uncapitalized letters represent notes that are staccato (1/2 duration)
Irregular groupings are notated above the duration line
Duration letters will always appear directly above the note/fret number it represents the
duration for.  Duration letters with no fret number below them represent rests.  Multi-
bar rests are notated in the form Wxn, where n is the number of bars to rest for.  Low
melody durations appear below the staff

Tablature Legend
----------------
 h   - hammer-on
 p   - pull-off
 b   - bend
 pb  - pre-bend
 r   - bend release (if no number after the r, then release immediately)
 /\  - slide into or out of (from/to "nowhere")
 s   - legato slide
 S   - shift slide
 - natural harmonic
[n]  - artificial harmonic
n(n) - tapped harmonic
 ~   - vibrato
 tr  - trill
 T   - tap
 TP  - trem. picking
 PM  - palm muting
\n/  - tremolo bar dip; n = amount to dip
 \n  - tremolo bar down
 n/  - tremolo bar up
/n\  - tremolo bar inverted dip
 =   - hold bend; also acts as connecting device for hammers/pulls
 <> - volume swell (louder/softer)
 x   - on rhythm slash represents muted slash
 o   - on rhythm slash represents single note slash

Misc Legend
-----------
 |  - bar
||  - double bar
||o - repeat start
o|| - repeat end
*|  - double bar (ending)
 :  - bar (freetime)
 $  - Segno
 &  - Coda
Tempo markers -  = BPM(8/16=s8/s16), where s8 = swing 8ths, s16 = swing 16ths

Suggest correction
Give kudos to tab author, rate the tab!
1 2 3 4 5
comments
print report bad tab
guest
You may want to rate the tab now too:
select rating
Please do not post tabs as comments. Select "correction" instead!