Oops, an error
Loading. Please wait.

Hermano Del Viento Tab

1,858 views 1 this week
no commentswrite comment
1 2 3 4 5
please rate
add to favorites
launch autoscroll
font size
0
reset
how to read this tab
guitar tuner
Tab Pro tools
  • play this tab
  • loop segment
  • change instrument
  • show fretboard
  • metronome
×
Best way to learn
"Hermano Del Viento"
Autoscroll
slow
fast
+/-
esc
set tempo
stop
HERMANO DEL VIENTO
TIERRA SANTA
APOCALIPSIS

INTRO:

Dm(1)           Dm(2)           C               Dm2
-----------------5-----5---------3-----3---------5-----5---------|
-6-----6-----8-----6-----6---8-----5-----5---6-----8-----5---6-5-|
---7-----7-----------7-----7---------5-----5---------7-----7-----|
-----7-----7-----------------------------------------------------|
-----------------------------------------------------------------|
-----------------------------------------------------------------|

FONDO:

------------------------------------------|
--15/----13/-----10/-----8/---------8/10--|
------------------------------------------|
------------------------------------------|
------------------------------------------|
------------------------------------------|


SEGUNDA GUITARRA: (0:31)

------------------------------------------|
--------------------/8~-------------------|
--7-9-10~---/7-9-10-------7-9-10-9----/7--|
-----------------------------------10-----|
------------------------------------------|
------------------------------------------|

-----------------------------------------|
--------------------/8~------------------|
--7-9-10~---/7-9-10-------7-9-10-9---/7--|
-----------------------------------------|
-----------------------------------------|
-----------------------------------------|

------------------------------------------|
---------------------8~-------------------|
--7-9-10~---/7-9-10-------7-9-10-9----/7--|
-----------------------------------10-----|
------------------------------------------|
------------------------------------------|

---------------------------------------------------------|
---------------------------------------------------------|
--7-9-10~---7-9-------7-9-10-9-/7---5---2----------------|
----------------10~-------------------------5---3/5/3-0~-|
---------------------------------------------------------|
---------------------------------------------------------|

Dm(1)   Dm(2)     C       Am      D2      C4
 ---     -5-     -3-     ---     -5-     ---
 -6-     -6-     -5-     -5-     -5-     -6-
 -7-     -7-     -5-     -5-     -7-     -5-
 -7-     ---     ---     -7-     ---     -5-
 ---     ---     ---     ---     ---     ---
 ---     ---     ---     ---     ---     ---

Dm(1)            Dm(2)
 Más allá de las nubes
C      Am          Dm(1)
   Dormía mí libertad
                 Dm(2)
 La encontré cautiva
     C            Am        Dm(1)
 llorando... su amarga soledad
               C
 Soñé que su llanto
     Dm(2)    C
 Acogía mi aliento
          C4
 Tuve un sueño
    Am                  Dm(1)
 Soñé... ser parte del cielo

Dm(1)          Dm(2)
 Viaje con el viento
     C    Am          Dm(1)
 Danzando en la tempestad
                Dm(2)
 Le entregue mi alma
    C           Am          Dm(1)
 Perdida... buscando su amistad
            C
 Sentí su lamento
       Dm(2)      C
 Descender de lo alto
C4                  Am
 El me ofreció su hogar
              Dm(1)
 Yo ser su hermano
Dm(2)            C
 No dejare de soñar
         Dm(2)    C
 Ni perderé su lamento
        C4     Am                  Dm(1)
 Solo añoro poder ser hermano del viento

Dm(1)      C4
 Tuve un sueño
   Am                Dm(1)
 Soñé ser parte del cielo


FONDO:
------------------------------------------|
--15/----13/-----10/-----8/---------8/10--|
------------------------------------------|
------------------------------------------|
------------------------------------------|
------------------------------------------|

adrian_asm-93@hotmail.com
comments
We did not receive enough feedback on this tab! Please rate:
print report bad tab
1 2 3 4 5
I want to post or [tab]
guest
You may want to rate the tab now too:
select rating
Please do not post tabs as comments. Select "correction" instead!