Oops, an error
Loading. Please wait.

Hoy Vivo Por Ti Bass Tab

version 1
version 1

Whole song

Interactive

61 views 1 this week
no commentswrite comment
1 2 3 4 5
3 more votes to show rating
add to favorites
launch autoscroll
font size
0
reset
guitar tuner
Autoscroll
slow
fast
+/-
esc
set tempo
stop
Help us to improve Ultimate-Guitar.com Take our survey!
×
bajo
     W                W                   W                W
G||-----------------------------|----------------------------|
D||-----------------------------|----------------------------|
A||-----------------------------|----------------------------|
E||--2----------------L---------|--0----------------L--------|


  W                W                   H        H        H    H
--------------------------|------------------------------------|
--------------------------|------------------------------------|
--5----------------L------|--------------------4--------L------|
--------------------------|--5--------L------------------------|


  E  E  E  E  E  E  E  E  E  E  E  E  E  E  E  E
--------------------------------------------------|
--------------------------------------------------|
--------------------------------------------------|
--2--2--2--2--2--2--2--2--2--2--2--2--2--2--2--2--|


  E  E  E  E  E  E  E  E  E  E  E  E  E  E  E  E
--------------------------------------------------|
--------------------------------------------------|
--------------------------------------------------|
--0--0--0--0--0--0--0--0--0--0--0--0--0--0--0--0--|


  E  E  E  E  E  E  E  E  E  E  E  E  E  E  E  E
--------------------------------------------------|
--------------------------------------------------|
--5--5--5--5--5--5--5--5--5--5--5--5--5--5--5--5--|
--------------------------------------------------|


  E  E  E  E  E  E  E  E  E  E  E  E  E  E  E  E
--------------------------------------------------|
--------------------------------------------------|
--------------------------4--4--4--4--4--4--4--4--|
--5--5--5--5--5--5--5--5--------------------------|


  alguien sabe porque
  E                   E  E  E  E  E  E  E  E  E  E  E  E  E  E  E
-------------------------------------------------------------------|
-------------------------------------------------------------------|
-------------------------------------------------------------------|
--2-------------------2--2--2--2--2--2--2--2--2--2--2--2--2--2--2--|


     muere inocente esta vida
  E  E                        E  E  E  E  E  E  E  E  E  E  E  E  E  E
------------------------------------------------------------------------|
------------------------------------------------------------------------|
------------------------------------------------------------------------|
--0--0------------------------0--0--0--0--0--0--0--0--0--0--0--0--0--0--|


  E  E  E  E  E  E  E  E  E  E  E  E  E  E  E  E
--------------------------------------------------|
--------------------------------------------------|
--5--5--5--5--5--5--5--5--5--5--5--5--5--5--5--5--|
--------------------------------------------------|

esta es parte de la tabs para bajo
bueno si no les gusta miren la tabs de acordes
son las mismas notas que la guitarra ritmica
Suggest correction
Give kudos to tab author, rate the tab!
1 2 3 4 5
comments
print report bad tab
guest
You may want to rate the tab now too:
select rating
Wanna post a correction for this tab? Suggest correction