Oops, an error
Loading. Please wait.

Hoy Vivo Por Ti Drums

version 1
version 1

Whole song

Interactive

31 views 1 this week
no commentswrite comment
1 2 3 4 5
3 more votes to show rating
add to favorites
launch autoscroll
font size
0
reset
guitar tuner
×
Best way to learn
"Hoy Vivo Por Ti"
Autoscroll
slow
fast
+/-
esc
set tempo
stop
esta es la tablatura para bateria de la cancion
igual ai una parte que no me quedo bien el ritmo
en el redoble del principio asi que si la corrigen se
lo agradecieria
      Q        Q        Q
C||--------|--------|--------|
C||--------|--------|--------|
C||--52----|--52----|--52----|
C||--49----|--49----|--49----|
C||--------|--------|--------|
C||--------|--------|--------|


   H         Q     E   E   S  S  E   E   S  S  E   E   E   E
--------------------------------------------------------------|
--------------------------------------------------------------|
--52--------52------------------------------------------------|
--49--------49------------------------------------------------|
------------------49------------------------------------------|
----------------------38--38-38-38--38--38-38-38--38--38--38--|


   Q     Q     Q     Q     Q     Q     E   E   Q
----------------------------------------------------|
----------------------------------------------------|
----------------------------------------------------|
----------------------------------------------------|
--44----44----44----44----44----44----44------44----|
--41----38----41----38----41----38----41--41--38----|


   Q     Q     Q     Q     Q     Q     E   E   Q
----------------------------------------------------|
----------------------------------------------------|
----------------------------------------------------|
----------------------------------------------------|
--44----44----44----44----44----44----44------44----|
--41----38----41----38----41----38----41--41--38----|


   Q     Q     Q     Q     Q     Q     E   E   Q
----------------------------------------------------|
----------------------------------------------------|
----------------------------------------------------|
----------------------------------------------------|
--44----44----44----44----44----44----44------44----|
--41----38----41----38----41----38----41--41--38----|


   Q     Q     E   E   Q     Q     Q     E   E   E   E
--------------------------------------------------------|
--------------------------------------------------------|
--------------------------------------------------------|
--------------------------------------------------------|
--44----44----44------44----44----44----44------44--44--|
--41----38----41--41--38----41----38----41--41--38--41--|


   Q     Q     Q     Q     Q     Q     Q     Q
--------------------------------------------------|
--------------------------------------------------|
--------------------------------------------------|
--------------------------------------------------|
--44----44----44----44----44----44----44----44----|
--41----38----41----38----41----38----41----38----|


   Q     Q     Q     Q     Q     Q     Q     Q
--------------------------------------------------|
--------------------------------------------------|
--------------------------------------------------|
--------------------------------------------------|
--44----44----44----44----44----44----44----44----|
--41----38----41----38----41----38----41----38----|


   Q     Q     Q     Q     Q     Q     Q     Q
--------------------------------------------------|
--------------------------------------------------|
--------------------------------------------------|
--------------------------------------------------|
--44----44----44----44----44----44----44----44----|
--41----38----41----38----41----38----41----38----|


   Q     Q     Q     Q     Q     Q     Q     Q
--------------------------------------------------|
--------------------------------------------------|
--------------------------------------------------|
--------------------------------------------------|
--44----44----44----44----44----44----44----44----|
--41----38----41----38----41----38----41----38----|


   Q     Q     Q     Q     Q     Q     Q     Q
--------------------------------------------------|
--------------------------------------------------|
--------------------------------------------------|
--------------------------------------------------|
--44----44----44----44----44----44----44----44----|
--41----38----41----38----41----38----41----38----|


   Q     Q     Q     Q     Q     Q     Q     Q
--------------------------------------------------|
--------------------------------------------------|
--------------------------------------------------|
--------------------------------------------------|
--44----44----44----44----44----44----44----44----|
--41----38----41----38----41----38----41----38----|


   Q     Q     Q     Q     Q     Q     Q     Q
--------------------------------------------------|
--------------------------------------------------|
--------------------------------------------------|
--------------------------------------------------|
--44----44----44----44----44----44----44----44----|
--41----38----41----38----41----38----41----38----|


   Q     Q     Q     Q     Q     Q     Q     Q
--------------------------------------------------|
--------------------------------------------------|
--------------------------------------------------|
--------------------------------------------------|
--44----44----44----44----44----44----44----44----|
--41----38----41----38----41----38----41----38----|


   Q     Q     Q     Q     Q     Q     Q     Q
--------------------------------------------------|
--------------------------------------------------|
--------------------------------------------------|
--------------------------------------------------|
--44----44----44----44----44----44----44----44----|
--41----38----41----38----41----38----41----38----|


   Q     Q     Q     Q     Q     Q     Q     Q
--------------------------------------------------|
--------------------------------------------------|
--------------------------------------------------|
--------------------------------------------------|
--44----44----44----44----44----44----44----44----|
--41----38----41----38----41----38----41----38----|


   Q     Q     Q     Q     Q     Q     Q     Q
--------------------------------------------------|
--------------------------------------------------|
--------------------------------------------------|
--------------------------------------------------|
--44----44----44----44----44----44----44----44----|
--41----38----41----38----41----38----41----38----|


   Q     Q     Q     Q     Q     Q     Q     Q
--------------------------------------------------||
--------------------------------------------------||
--------------------------------------------------||
--------------------------------------------------||
--44----44----44----44----44----44----44----44----||
--41----38----41----38----41----38----41----38----||


Duration Legend
---------------
W - whole
H - half
Q - quarter
E - 8th
S - 16th
T - 32nd
X - 64th
. - note dotted
|-n-|  - n-tuplets


la cancion esta hecha en un ritmo de 8/4
ojala que les guste
Suggest correction
Give kudos to tab author, rate the tab!
1 2 3 4 5
comments
print report bad tab
guest
You may want to rate the tab now too:
select rating
Wanna post a correction for this tab? Suggest correction