Oops, an error
Loading. Please wait.

Hoy Vivo Por Ti Tab

version 1
version 1

Whole song

Interactive

147 views 1 this week
no commentswrite comment
1 2 3 4 5
3 more votes to show rating
add to favorites
launch autoscroll
font size
0
reset
how to read this tab
guitar tuner
×
Best way to learn
"Hoy Vivo Por Ti"
Autoscroll
slow
fast
+/-
esc
set tempo
stop
(INTRO)

1|-------|-------|-------|-------|-------|
2|-------|-------|-------|-------|-------|
3|-------|-------|-------|-------|-------|
4|-------|-------|---7---|-------|---6---|
5|---4---|---2---|---5---|---7---|---4---|
6|---2---|---0---|-------|---5---|-------|

1|---------------------------------------------------------|
2|---------------------------------------------------------|
3|---------------------------------------------------------|
4|---------------------------------------------------------|
5|-4----4----4----4----4-------2----2----2----2----2-------|
6|-2-22-2-22-2-22-2-22-2-222---0-00-0-00-0-00-0-00-0-000---|
     --   --   --   --   ---     --   --   --   --   ---    pm

1|---------------------------------------|
2|---------------------------------------|
3|---------------------------------------|
4|-7----7----7----7----7-------------6---|
5|-5-55-5-55-5-55-5-55-5-555---7-----4---|
6|-----------------------------5---------|
     --   --   --   --   ---              pm


  ¿Alguien sabe porque muere inocente esta vida?
1|---------------------------------------------------|
2|---------------------------------------------------|
3|---------------------------------------------------|
4|---------------------------------------------------|
5|-----------------4---------------------------------|
6|-----------------2---------------------------------|

  es que a muerto el amor, es que no hay compasion
  o es que Dios se a olvidado de ti
1|-----------------------------------|
2|---------------------------4-------|
3|----------------6--------6---------|
4|-----------------------------------|
5|-------------5-------4-------------|
6|-----------------------------------|(sin distorcion)

  ¿Alguien sabe porque...     existe tal injusticia?
1|------------------------------|
2|--------------------2---------|
3|-----------------------2------|
4|-----------------4-------4----|
5|------------------------------|
6|------------------------------|(sin distorcion)

  que alimenta el dolor destruyendo el valor
  que deja un niño al morir
1|-----------------------------------|
2|---------------------------4-------|
3|----------------6--------6---------|
4|-----------------------------------|
5|-------------5-------4-------------|
6|-----------------------------------|(sin distorcion)

  Quiero verle jugar...    ser un niño feliz
1|-------------------------------------------|
2|-------------------------------------------|
3|-------------------------------------------|
4|-------------------------------------------|
5|------------444----------------------444---|
6|------------222----------------------222---|

  poder su voz escuchar
1|-----------------------|
2|-----------------------|
3|-----------------------|
4|---2---------------4---|
5|---0---------------2---|
6|-----------------------|

   Quiero verle correr...    quiero oirle gritar
1|---------------------------------------------|
2|---------------------------------------------|
3|---------------------------------------------|
4|---------------------------------------------|
5|------------444-----------------------444----|
6|------------222-----------------------222----|

  que pueda volver a soñar
1|--------------------------|
2|--------------------------|
3|--------------------------|
4|---------------------6----|
5|-----7---------------4----|
6|-----5--------------------|


(CORO X2)

   Hoy vivo por ti     tu debes vivir
1|---------------------------------------------------------|
2|---------------------------------------------------------|
3|---------------------------------------------------------|
4|---------------------------------------------------------|
5|-4----4----4----4----4-------2----2----2----2----2-------|
6|-2-22-2-22-2-22-2-22-2-222---0-00-0-00-0-00-0-00-0-000---|
     --   --   --   --   ---     --   --   --   --   ---    pm

   Hoy quiero luchar   hasta que vuelvas de nuevo a reir
1|---------------------------------------|
2|---------------------------------------|
3|---------------------------------------|
4|-7----7----7----7----7-------------6---|
5|-5-55-5-55-5-55-5-55-5-555---7-----4---|
6|-----------------------------5---------|
     --   --   --   --   ---              pm


(SOLO)

1|--------12----------------------12-----------|
2|----------16-15-------------------16-15-15---|
3|---/14---------14----------/14---------------|
4|---------------------------------------------|
5|---------------------------------------------|
6|---------------------------------------------|

1|-------12---------------------------------------------|
2|---------16-15-13-15-15---------------14-15-14---14---|
3|---/14------------------------13-14-16--------16------|
4|----------------------------16------------------------|
5|------------------------------------------------------|
6|------------------------------------------------------|

1|---------------21b-21b-21b-19-17-----------------------------|
2|--------------------------------20-----17-15-14---14-15-14---|
3|-----21-19-18-----------------------------------16-----------|
4|---19--------------------------------------------------------|
5|-------------------------------------------------------------|
6|-------------------------------------------------------------|

1|------------------------14-16-17-16-14-16----14-13---|
2|------17b(19)-17-------------------------------------|
3|---14---------------/14------------------------------|
4|-----------------------------------------------------|
5|-----------------------------------------------------|
6|-----------------------------------------------------|

 (Se toca lo mismo que el inicio)

Que niño puede vivir con la esperanza dormida
Sin el calor del hogar ni madre a la que abrazar
Esperando que llegue su fin
Dime cual es su maldad, con que delito a nacido
Que precio debe pagar si es nuestra culpa olvidar
Que un dia tambien fuimos niños

Quiero verle jugar, ser un niño feliz
Poder su voz escuchar
Quiero verle correr, quiero oirle gritar
Que pueda volver a soñar

Hoy vivo por ti, tu debes vivir
Hoy quiero luchar
Hasta que vuelvas de nuevo a rerir.
Suggest correction
Give kudos to tab author, rate the tab!
1 2 3 4 5
comments
print report bad tab
guest
You may want to rate the tab now too:
select rating
Wanna post a correction for this tab? Suggest correction