Oops, an error
Loading. Please wait.

La Cancion Del Pirata (Ii Parte) Bass

73 views 1 this week
no commentswrite comment
1 2 3 4 5
3 more votes to show rating
add to favorites
launch autoscroll
font size
0
reset
guitar tuner
×
Best way to learn
"La Cancion Del Pirata (II Parte)"
Autoscroll
slow
fast
+/-
esc
set tempo
stop
NOTA:

Espero y te ayude en algo esta tab.
Si necesitas una tab en especial, escríbeme o visita...

*******************************************
*  *
*******************************************

- Pon atención a las instrucciones que están al final
- CALIFICA SOLO SI LEÍSTE "EL MANUAL"-


     S    W                   W                   W
G||----|-------------------|-------------------|-------------------|
D||----|-------------------|-------------------|-------------------|
A||----|-------------------|-------------------|-------------------|
E||----|-------------------|-------------------|-------------------|


  W                   W                   W
-------------------|-------------------|-------------------|
-------------------|-------------------|-------------------|
-------------------|-------------------|-------------------|
-------------------|-------------------|-------------------|


  W                   W                    W
-------------------|-------------------|---------------------|
-------------------|-------------------|---------------------|
-------------------|-------------------|--(5)----------------|
-------------------|-------------------|---------------------|


   W                     W                     W
---------------------|---------------------|---------------------|
---------------------|---------------------|---------------------|
--(1)----------------|--(3)----------------|--(0)----------------|
---------------------|---------------------|---------------------|


   W                     W                     W
---------------------|---------------------|---------------------|
---------------------|---------------------|---------------------|
--(5)----------------|--(1)----------------|--(3)----------------|
---------------------|---------------------|---------------------|


   W                     W                     W
---------------------|---------------------|---------------------|
---------------------|---------------------|---------------------|
--(0)----------------|--(8)----------------|--(7)----------------|
---------------------|---------------------|---------------------|


   W                    H.            E    E       W
---------------------|-------------------------|---------------------|
---------------------|-------------------------|---------------------|
--(5)----------------|--L------------(5)--(3)--|--(1)----------------|
---------------------|-------------------------|---------------------|


   W                     H.             E    E
---------------------|---------------------------|
---------------------|---------------------------|
--(3)----------------|--(0)------------(3)--(5)--|
---------------------|---------------------------|


   W                       W                     W
---------------------||----------------------|---------------------|
---------------------||*---------------------|---------------------|
---------------------||*--(5)----------------|--(1)----------------|
--(0)----------------||----------------------|---------------------|


   W                     W                       W
---------------------|----------------------||---------------------|
---------------------|---------------------*||---------------------|
--(3)----------------|--(0)----------------*||--(5)----------------|
---------------------|----------------------||---------------------|


   W                     W                     W
---------------------|---------------------|---------------------|
---------------------|---------------------|---------------------|
--(1)----------------|--(3)----------------|--(0)----------------|
---------------------|---------------------|---------------------|


   W                     W                     W
---------------------|---------------------|---------------------|
---------------------|---------------------|---------------------|
--(5)----------------|--(1)----------------|--(3)----------------|
---------------------|---------------------|---------------------|


   W                       W                     W
---------------------||----------------------|---------------------|
---------------------||*---------------------|---------------------|
--(0)----------------||*--(5)----------------|--(1)----------------|
---------------------||----------------------|---------------------|


   W                     W                       W
---------------------|----------------------||---------------------|
---------------------|---------------------*||---------------------|
--(3)----------------|--(0)----------------*||--(5)----------------|
---------------------|----------------------||---------------------|


   W                     W                     W
---------------------|---------------------|---------------------|
---------------------|---------------------|---------------------|
--(1)----------------|--(3)----------------|--(0)----------------|
---------------------|---------------------|---------------------|


   W                     W                     W
---------------------|---------------------|---------------------|
---------------------|---------------------|---------------------|
--(5)----------------|--(1)----------------|--(3)----------------|
---------------------|---------------------|---------------------|


   W                     W                     W
---------------------|---------------------|---------------------|
---------------------|---------------------|---------------------|
--(0)----------------|--(5)----------------|--(1)----------------|
---------------------|---------------------|---------------------|


   W                     W                     W
---------------------|---------------------|---------------------|
---------------------|---------------------|---------------------|
--(3)----------------|--(0)----------------|--(5)----------------|
---------------------|---------------------|---------------------|


   W                     W                     W
---------------------|---------------------|---------------------|
---------------------|---------------------|---------------------|
--(1)----------------|--(3)----------------|--(0)----------------|
---------------------|---------------------|---------------------|


   W                     W                     W
---------------------|---------------------|---------------------|
---------------------|---------------------|---------------------|
--(5)----------------|--(1)----------------|--(3)----------------|
---------------------|---------------------|---------------------|


   W                     W                     W
---------------------|---------------------|---------------------|
---------------------|---------------------|---------------------|
--(0)----------------|--(5)----------------|--(1)----------------|
---------------------|---------------------|---------------------|


   W                     W                      E  E  E  E  H
---------------------|---------------------||------------------------|
---------------------|---------------------||*-----------------------|
--(3)----------------|--(0)----------------||*--5--5--5--5--5--------|
---------------------|---------------------||------------------------|


  E  E  E  E  H           E  E  E  E  H
-----------------------|-----------------------|
-----------------------|-----------------------|
--3--3--3--3--3--------|--1--1--1--1--1--------|
-----------------------|-----------------------|


  E  E  E  E  Q    Q         E  E  E  E  H
-------------------------||-----------------------|
------------------------*||-----------------------|
--0--0--0--0--1----3----*||--5--5--5--5--5--------|
-------------------------||-----------------------|


  E  E  E  E  H           E  E  E  E  H
-----------------------|-----------------------|
-----------------------|-----------------------|
--3--3--3--3--3--------|--1--1--1--1--1--------|
-----------------------|-----------------------|


  E  E  E  E  Q    Q       E  E  E  E  H
------------------------|-----------------------|
------------------------|-----------------------|
--0--0--0--0--1----3----|--5--5--5--5--5--------|
------------------------|-----------------------|


  E  E  E  E  H           E  E  E  E  H           W
-----------------------|-----------------------|-------------------|
-----------------------|-----------------------|-------------------|
--3--3--3--3--3--------|--1--1--1--1--1--------|--0----------------|
-----------------------|-----------------------|-------------------|


  W                   W                   H        H
-------------------|-------------------|--------------------|
-------------------|-------------------|--------------------|
--L----------------|--L----------------|--L--------5--------|
-------------------|-------------------|--------------------|


  H        H           W                   W
--------------------|-------------------|-------------------|
--------------------|-------------------|-------------------|
--3--------1--------|--L----------------|--0----------------|
--------------------|-------------------|-------------------|


  W                   W                   W
-------------------|-------------------|-------------------|
-------------------|-------------------|-------------------|
--L----------------|--5----------------|--L----------------|
-------------------|-------------------|-------------------|


  W                   W
-------------------|-------------------||
-------------------|-------------------||
--L----------------|--L----------------||
-------------------|-------------------||


Duration Legend
---------------
W - whole
H - half
Q - quarter
E - 8th
S - 16th
T - 32nd
X - 64th
. - note dotted
|-n-|  - n-tuplets


Tablature Legend
----------------
L - tied note
x - dead note
g - grace note
(n) - ghost note
> - accentuded note
NH - natural harmonic
AH - artificial harmonic
TH - tapped harmonic
SH - semi harmonic
PH - pitch harmonic
h - hammer on
p - pull off
b - bend
br - bendRelease
pb - preBend
pbr - preBendRelease
brb - bendReleaseBend
n/ - tremolo bar dip
n - tremolo bar dive
-/n - tremolo bar Release up
/n - tremolo bar inverted dip
/n - tremolo bar return
-n - tremolo bar Release down
S - shift slide
s - legato slide
/ -  slide into from below or out of upwards
 -  slide into from above or out of downwards
~ - vibrato
W - wide vibrato
tr - trill
TP - tremolo picking
T - tapping
S - slap
P - pop
< - fade in
^ - brush up
v - brush down
Suggest correction
Give kudos to tab author, rate the tab!
1 2 3 4 5
comments
print report bad tab
guest
You may want to rate the tab now too:
select rating
Wanna post a correction for this tab? Suggest correction