Oops, an error
Loading. Please wait.

La Cancion Del Pirata (Ii Parte) Tab

version 2
version 2

Whole song

116 views 1 this week
no commentswrite comment
1 2 3 4 5
3 more votes to show rating
add to favorites
×
Save as Personal and add changes to this tab that will be seen only by you. Learn more ›
×
You can save this tab as Personal to edit and correct it or add notes. All changes will be seen only by you. Learn more »
save as personal
new!
launch autoscroll
font size
0
reset
how to read this tab
guitar tuner
Autoscroll
slow
fast
+/-
esc
set tempo
stop
Una buena canción, y pienso que esta en un 95% acertada....


INTRO


     Dm (dos veces)
e|----------1--------------------1--------|
B|-----3-------3---3---------3-----3---3--|
G|---2---2-------2--------2----2-----2----|
D|-0-------------------0------------------|
A|----------------------------------------|
E|----------------------------------------|


DURANTE EL PUNTEADO A

        Dm                      Bb                   C                A
e|----------1--------|----------------------|-------------------|------------------|
B|-----3-------3---3-|-------------3--------|----------5--------|---------2--------|
G|---2---2-------2---|--------3-------3---3-|------5------5---5-|-----2------2---2-|
D|-0-----------------|-----3----3-------3---|----5---5------5---|---2---2------2---|
A|-------------------|--1-------------------|--3----------------|-0----------------|
E|-------------------|----------------------|-------------------|------------------|


PUNTEADO A

e|--------------------------------------------------------------------------------------------|
B|-----------5-6-5--3h5--6-8-6-5-3-1-3-5h6-5--6-5--6-8-6-5-3-1-6-5-6-5-3-1-3------------------|
G|-6/7--5-7------------------------------------------------------------------5-7-9-10-9-7-5-3-|
D|--------------------------------------------------------------------------------------------|
A|--------------------------------------------------------------------------------------------|
E|--------------------------------------------------------------------------------------------|


e|------------------|
B|--------------3-5-|
G|-5--3h5h3--2------|
D|------------------|
A|------------------|
E|------------------|


DURANTE LA CANCIÓN

        Dm                      Bb                   C                A
e|----------1--------|----------------------|-------------------|------------------|
B|-----3-------3---3-|-------------3--------|----------5--------|---------2--------|
G|---2---2-------2---|--------3-------3---3-|------5------5---5-|-----2------2---2-|
D|-0-----------------|-----3----3-------3---|----5---5------5---|---2---2------2---|
A|-------------------|--1-------------------|--3----------------|-0----------------|
E|-------------------|----------------------|-------------------|------------------|


PUNTEADO B

e|---------------------------------------------------------------|
B|-----------5-6-5--3h5--6-8-6-5-3-1-3-5h6-5--6-5--6-8-6-5-3-1---|
G|-6/7--5-7----------------------------------------------------7-|
D|---------------------------------------------------------------|
A|---------------------------------------------------------------|
E|---------------------------------------------------------------|


FINAL

   D8     D5   Bb8    Bb5  C8     C5   A8 A5 Bb5 C5
e|-X---------|-X---------|-X---------|-X---------|
B|-X---------|-X---------|-X---------|-X---------|
G|-X-------7-|-X-------3-|-X-------5-|-X---7-3-5-|
D|-7-7-7-7-7-|-3-3-3-3-3-|-5-5-5-5-5-|-7-7-7-3-5-|
A|-5-5-5-5-5-|-1-1-1-1-1-|-3-3-3-3-3-|-5-5-5-1-3-|
E|-X---------|-X---------|-X---------|-X---------|


PUNTEADO FINAL

e|---8--10-11-10-8---------------|
B|-8---------------8--10-8-6-5-3-|
G|-------------------------------|
D|-------------------------------|
A|-------------------------------|
E|-------------------------------|
Suggest correction
Give kudos to tab author, rate the tab!
1 2 3 4 5
comments
print report bad tab
guest
Wanna post a correction for this tab? Suggest correction