Oops, an error
Loading. Please wait.

La Cancion Del Pirata Parte 2 Tab

version 1
version 1

Whole song

Interactive

3,214 views 1 this week
no commentswrite comment
1 2 3 4 5
please rate
add to favorites
launch autoscroll
font size
0
reset
how to read this tab
guitar tuner
Tab Pro tools
  • play this tab
  • loop segment
  • change instrument
  • show fretboard
  • metronome
×
Best way to learn
"La Cancion Del Pirata Parte 2"
Autoscroll
slow
fast
+/-
esc
set tempo
stop
Contributor
-------------------------------------------------------------------------------
 Title:    | La Canción Del Pirata (Parte II)                     
-------------------------------------------------------------------------------
 Artist:   | Tierra Santa                  
 Album:    | Tierras De Leyenda
 Author:   | Tierra Santa                  
 Copyright:| 2000 LOCOMOTIVE MUSIC         
 Tab:      | Nestor Arroliga Tellez [naat] 
 E-mail:   | maiden_nat@yahoo.com          
-------------------------------------------------------------------------------

[Intro]: 

Guitar 1 (clean):
e|------------------|------------------|------------------|------------------|
B|---------6--------|---------6--------|---------6--------|---------6--------|
G|-----7-----7---7--|-----7-----7---7--|-----7-----7---7--|-----7-----7---7--|
D|---7---7-----7----|---7---7-----7----|---7---7-----7----|---7---7-----7----|
A|-5----------------|-5----------------|-5----------------|-5----------------|
E|------------------|------------------|------------------|------------------|

Then Guitar 2 enters...

Guitar 1 (clean):
e|------------------|------------------|------------------|------------------|
B|---------6--------|---------3--------|---------5--------|---------2--------|
G|-----7-----7---7--|-----3-----3---3--|-----5-----5---5--|-----2-----2---2--|
D|---7---7-----7----|---3---3-----3----|---5---5-----5----|---2---2-----2----|
A|-5----------------|-1----------------|-3----------------|-0----------------|
E|------------------|------------------|------------------|------------------|

Guitar 2 (clean):
e|---------------|----------|----------3--|---------------|
B|-1h3~------3-5-|-6--5--3--|-5----6------|-6-5----3------|
G|---------5-----|----------|-------------|------------5--|
D|---------------|----------|-------------|---------------|
A|---------------|----------|-------------|---------------|
E|---------------|----------|-------------|---------------|

Guitar 1 (clean):
e|------------------|------------------|------------------|------------------|
B|---------6--------|---------3--------|---------5--------|---------2--------|
G|-----7-----7---7--|-----3-----3---3--|-----5-----5---5--|-----2-----2---2--|
D|---7---7-----7----|---3---3-----3----|---5---5-----5----|---2---2-----2----|
A|-5----------------|-1----------------|-3----------------|-0----------------|
E|------------------|------------------|------------------|------------------|

Guitar 2 (clean):
e|-----------------|------------|----------|-3-----------|
B|-3~------3/5--3--|-------5/6--|-5------6-|---6--5--3---|
G|-----------------|-3~---------|----------|-----------5-|
D|-----------------|------------|----------|-------------|
A|-----------------|------------|----------|-------------|
E|-----------------|------------|----------|-------------|

Guitar 1 (clean):
e|------------------|------------------|------------------|------------------|
B|---------3--------|---------5--------|---------6--------|---------6--------|
G|-----3-----3---3--|-----5-----5---5--|-----7-----7---7--|-----7-----7---7--|
D|---3---3-----3----|---5---5-----5----|---7---7-----7----|---7---7-----7----|
A|-1----------------|-3----------------|-5----------------|-5----------------|
E|------------------|------------------|------------------|------------------|

Guitar 2 (clean):
e|-----------------|------------|-------|-----------------|
B|-5h6~------5--6--|-5----3-----|-3-----|---3-5-5h6-5-3---|
G|-----------------|---------5--|-------|-5-------------5-|
D|-----------------|------------|-------|-----------------|
A|-----------------|------------|-------|-----------------|
E|-----------------|------------|-------|-----------------|

Guitar 1 (clean):
e|------------------|------------------|------------------|-0-----|
B|---------3--------|---------5--------|---------2--------|-0-----|
G|-----3-----3---3--|-----5-----5---5--|-----2-----2---2--|-0-----|
D|---3---3-----3----|---5---5-----5----|---2---2-----2----|-2-----|
A|-1----------------|-3----------------|-0----------------|-------|
E|------------------|------------------|------------------|-------|

Guitar 2 (clean):
e|----------|-----------------|----------|---------|
B|----------|-----------------|--------3-|-3h5~----|
G|-3------3-|-3h5----3--3h5p3-|-2--------|---------|
D|----------|-----------------|----------|---------|
A|----------|-----------------|----------|---------|
E|----------|-----------------|----------|---------|


[Verse Riff 1]: 8x

Both Guitars (clean):
e|------------------|------------------|------------------|------------------|
B|---------6--------|---------3--------|---------5--------|---------2--------|
G|-----7-----7---7--|-----3-----3---3--|-----5-----5---5--|-----2-----2---2--|
D|---7---7-----7----|---3---3-----3----|---5---5-----5----|---2---2-----2----|
A|-5----------------|-1----------------|-3----------------|-0----------------|
E|------------------|------------------|------------------|------------------|


[Interlude]:

Guitar 1 (clean):
e|------------------|------------------|------------------|------------------|
B|---------6--------|---------3--------|---------5--------|---------2--------|
G|-----7-----7---7--|-----3-----3---3--|-----5-----5---5--|-----2-----2---2--|
D|---7---7-----7----|---3---3-----3----|---5---5-----5----|---2---2-----2----|
A|-5----------------|-1----------------|-3----------------|-0----------------|
E|------------------|------------------|------------------|------------------|

Guitar 2 (clean):
e|---------------|----------|----------3--|---------------|
B|-1h3~------3-5-|-6--5--3--|-5----6------|-6-5----3------|
G|---------5-----|----------|-------------|------------5--|
D|---------------|----------|-------------|---------------|
A|---------------|----------|-------------|---------------|
E|---------------|----------|-------------|---------------|

Guitar 1 (clean):
e|------------------|------------------|------------------|------------------|
B|---------6--------|---------3--------|---------5--------|---------2--------|
G|-----7-----7---7--|-----3-----3---3--|-----5-----5---5--|-----2-----2---2--|
D|---7---7-----7----|---3---3-----3----|---5---5-----5----|---2---2-----2----|
A|-5----------------|-1----------------|-3----------------|-0----------------|
E|------------------|------------------|------------------|------------------|

Guitar 2 (clean):
e|-----------------|------------|----------|-3-----------|
B|-3~------3/5--3--|-------5/6--|-5------6-|---6--5--3---|
G|-----------------|-3~---------|----------|-----------5-|
D|-----------------|------------|----------|-------------|
A|-----------------|------------|----------|-------------|
E|-----------------|------------|----------|-------------|


[Verse Riff 1] 2x


[verse Riff 2]: 4x

Both Guitars:                           |1. - 3.        |4.
e|------------|------------|------------|---------------|----------|
B|------------|------------|------------|---------------|----------|
G|---------7--|---------5--|---------3--|---------3--5--|-2--------|
D|-7-7-7-7-7--|-5-5-5-5-5--|-3-3-3-3-3--|-2-2-2-2-3--5--|-2--------|
A|-5-5-5-5-5--|-3-3-3-3-3--|-1-1-1-1-1--|-0-0-0-0-1--3--|-0--------|
E|------------|------------|------------|---------------|----------|
pm .......      .......      .......      .......


[Outro]:

Guitar 1:
e|-----------------|-----------|---------|--------|-------|--------|--------|
B|-----------------|-----------|---------|--------|-------|--------|--------|
G|------7--9--9br--|-7------7--|---------|--------|-------|--------|-5/7----|
D|-5/7-------------|----10-----|-10---8--|-(8)----|-7-----|-(7)----|--------|
A|-----------------|-----------|---------|--------|-------|--------|--------|
E|-----------------|-----------|---------|--------|-------|--------|--------|

Guitar 2:
e|-----------------|-----------|---------|--------|-------|--------|--------|
B|-----------------|-----------|---------|--------|-------|--------|--------|
G|-----------------|--------7--|-5----3--|-(3)----|-2-----|-(2)----|-7------|
D|-----------------|--------7--|-5----3--|-(3)----|-2-----|-(2)----|-7------|
A|-----------------|--------5--|-3----1--|-(1)----|-0-----|-(0)----|-5------|
E|-----------------|-----------|---------|--------|-------|--------|--------|

-------------------------------------------------------------------------------
Tablature Explanation                     
-------------------------------------------------------------------------------
 h   : hammer on    | b   : bend                                  
 p   : pull off     | br  : bend - release                     
 /   : slide up     | t   : tapping                             
 \   : slide down   | tr  : trill                                
 \/  : dive         | x   : muted note                           
 ~   : vibrato      | ()  : ghost note                           
 ~~~ : wide vibrato | <>  : harmonics
 pm..: palm mute    | /// : tremolo picking       
-------------------------------------------------------------------------------
comments
We did not receive enough feedback on this tab! Please rate:
print report bad tab
1 2 3 4 5
I want to post or [tab]
guest
You may want to rate the tab now too:
select rating
Please do not post tabs as comments. Select "correction" instead!