Oops, an error
Loading. Please wait.

Los Diez Mandamientos Tab

92 views 1 this week
no commentswrite comment
1 2 3 4 5
3 more votes to show rating
add to favorites
launch autoscroll
font size
0
reset
how to read this tab
guitar tuner
×
Best way to learn
"Los Diez Mandamientos"
Autoscroll
slow
fast
+/-
esc
set tempo
stop
  x2
e|---------------------------||--------------------------||
B|--12-13-12-10----------10--||--12-13-12-10-------------||
G|--------------12-11-12-----||--------------12-11-12-11-||


e|---------------------------||--------------------------||
B|--10-11-10-----------------||--10-11-10----------------||
G|------------12-10-9-10-12--||------------12-10-9-10-9--||


e|---------------------------||--------------------------||
B|--12-13-12-10----------10--||--12-13-12-10-------------||
G|--------------12-11-12-----||--------------12-11-12-11-||


e|---------------------------||--------------------------||
B|---------------------------||--10-11-10----------------||
G|--12-13-12-10----------10--||------------12-10-9-10-9--||
A|--------------13-12-13-----||--------------------------||


e|---------------------------||--------------------------||
B|--12-13-12-10----------10--||--12-13-12-10-------------||
G|--------------12-11-12-----||--------------12-11-12-9~-||

 x2
    A                             A
e|----------------------------||----------------------------||
B|----------------------------||----------------------------||
G|--9-7-----------7-7-9----7~-||--9-7-----------7-7-9-------||
D|------10-7-7-10-------10----||------10-7-7-10-------10-7~-||
A|----------------------------||----------------------------||
E|----------------------------||----------------------------||
  x2
    A             G             F             G        F       G
e|--------------------------||--------------------------------------||
B|--------------------------||--------------------------------------||
G|---------7-9----7-9----7~-||---------7-9----7-9~--9-7----9-7------||
D|--7-9-10-----10-----10----||--7-9-10-----10-----------10----10-7--||
A|--------------------------||--------------------------------------||
E|--------------------------||--------------------------------------||


A                  G
un dia dios a su pueblo salvo
F                    G         F-G
de ser esclavos del reino de egipto
A                     G
guiados por un hombre y su baston
F                     G        F-G
pusieron rumbo a una tierra mejor

C               D
en un lugar elegido por dios
C                  F  F   G  G
llego moises y su pueblo espero
C                     D
y mientras el kon su fuego oklamo
E
las tablas de la ley

A              G
los diez mandamientos
C              F G
la ley de su dios
A              G
grabada en la piedra
               F
kon el fuego eterno
                  G  F G
ke en el cielo ardio


 x2
    A                             A
e|----------------------------||----------------------------||
B|----------------------------||----------------------------||
G|--9-7-----------7-7-9----7~-||--9-7-----------7-7-9-------||
D|------10-7-7-10-------10----||------10-7-7-10-------10-7~-||
A|----------------------------||----------------------------||
E|----------------------------||----------------------------||

 x8
   A G F G F-G
e|----------------------------------------||
B|----------------------------------------||
G|--------------7----7-9-10-9-7-9-7-------||
D|--7-9-10-9-10---10----------------10-9--||
A|----------------------------------------||
E|----------------------------------------||

solo: A G F G F-G  C D C F-G
      C D E E


A                 G
los diez mandamientos
C              F G
la ley de su dios
A              G
grabada en la piedra
               F
kon el fuego eterno
                  G  F G
ke en el cielo ardio

A                      G
kuando moises de la montana bajo
F                  G        F-G
para ensenarle la ley a su pueblo
A                 G
adorando a otro dios lo enkontro
F           G           F-G
y su ira sobre ellos kallo


C                       D
y en ese intante el baston levanto
C                 F       G
y a su pueblo en dos dividio
C                       D
y por el mundo su pueblo enseno
E
lastablas de la ley


A                 G
los diez mandamientos
C              F G
la ley de su dios
A              G
grabada en la piedra
               F
kon el fuego eterno
                  G  F G
ke en el cielo ardio


  DEDIKATORIAS:  A los david, nestor, y Kembly... Y xsupuesto a todos los
ke en algun momento usen esta tablatura. Espero ke les sirva de mucho...
Suggest correction
Give kudos to tab author, rate the tab!
1 2 3 4 5
comments
print report bad tab
guest
You may want to rate the tab now too:
select rating
Wanna post a correction for this tab? Suggest correction