Oops, an error
Loading. Please wait.

Canto A Los Santos Bass Tab

7 views 1 this week
no commentswrite comment
1 2 3 4 5
3 more votes to show rating
add to favorites
launch autoscroll
font size
0
reset
guitar tuner
Autoscroll
slow
fast
+/-
esc
set tempo
stop
Help us to improve Ultimate-Guitar.com Take our survey!
×
Intro
G----------------------------------------------------------------
D------6-9-----6-9-------------------------------------6-9-------
A----7-------7---------6-9-----6-9-----4-7-----4-7---7-------7---
E----------7-------7-7-----7-7-----7-5-----5-5-----5-------7-----


G-------------------------------------
D----6-7-9----6-7-9-------------------
A--7--------7----------6-7-9---6-7-9--
E--------------------7-------7--------


G-------------------------------------
D---------------------6-7-9---6-7-9---
A----4-5-7---4-5-7--7-------7---------
E--5-------5--------------------------


Esto es lo q hace despues del solo de percusion
G-----------------------------
D--------------0-2------------
A------2-0-4-2-----2----------
E--0-4---------------4-5-4-2--


Al final, ya para terminar la cancion, hace algo asi.
G-9-8-6-------------------------------
D-------9-7-6-------------------------
A-------------9-6-7-------------------
Suggest correction
Give kudos to tab author, rate the tab!
1 2 3 4 5
comments
print report bad tab
guest
You may want to rate the tab now too:
select rating
Wanna post a correction for this tab? Suggest correction