Oops, an error
Loading. Please wait.

Hierba Mala Bass

23 views 1 this week
no commentswrite comment
1 2 3 4 5
3 more votes to show rating
add to favorites
×
Save as Personal and add changes to this tab that will be seen only by you. Learn more ›
×
You can save this tab as Personal to edit and correct it or add notes. All changes will be seen only by you. Learn more »
save as personal
new!
launch autoscroll
font size
0
reset
guitar tuner
Autoscroll
slow
fast
+/-
esc
set tempo
stop
Estoy seguro de q esta tablatura esta bien.
Escucha la cancion pa agarar el ritmo

riff 1
G|---------|--------|
D|-3--3-0--|-3-3-0--|
A|-------3-|------3-|
E|---------|--------|

riff 2
G|-----------------------------|-------|
D|-----2--2-5--5-7-5--3-3-3-0--|-------|
A|-3--3----------------------3-|-0-1-2-|
E|-----------------------------|-------|

riff 3
G|----------------------------------------------|
D|-------------0-3--------------2-5--3-3-3-0----|
A|--0-3-----1-1---1-1---0-3--3-3------------4-3-|
E|-1---1-1-------------1------------------------|

riff 4
G|--------3--3--------5---|------------|
D|-3--3----3--3----3---5--|-3-3-3-0----|
A|--3--3----1--1----3---3-|--------4-3-|
E|---1--1------------1----|------------|

Orden:
riff 1 x2
riff 2 x2
riff 3 x1
riff 4 x1
riff 2 x2
riff 3 x1
riff 4 x1
Solo:
riff 1 x2
riff 2 x2
riff 3 x1
riff 4 x1
riff 2 x2
riff 3 x1
riff 4 x1
riff 2 x2
riff 3 x1
riff 4 x2
riff 1 x2
Suggest correction
Give kudos to tab author, rate the tab!
1 2 3 4 5
comments
print report bad tab
guest
Wanna post a correction for this tab? Suggest correction