Oops, an error
Loading. Please wait.

Humanidad Bass Tab

11 views 1 this week
no commentswrite comment
1 2 3 4 5
3 more votes to show rating
add to favorites
launch autoscroll
font size
0
reset
guitar tuner
×
Best way to learn
"Humanidad"
Autoscroll
slow
fast
+/-
esc
set tempo
stop
INTRO
G--------------------------------------------I--I----
D--------5-3------------------------5-3------I--I----
A----2-5-----3----2--2-3-2-0----2-5-----3----Ix2I----
E--3------------3-------------3-----------3--I--I----


Vieja loca humanidad...
G-----------------------------------------------------------
D-----------------------------------------------------------
A-----2-------------2-2-3-2--------2-------3----2-------3---
E---3---3-1-1---3-3--------------3---3-1-3----3---3-1-3-----


G------------------------------------------------------
D------------------------------------------------------
A-----2-------------2-2-3---------2-------3----2-------
E---3---3-1-1---3-3-------------3---3-1-3----3---3-1---

   y no es q quiera huir no...
G----------------------------------------------------------------
D----------------------------------------------------------------
A--2-3-4-5---------3--------5--------3--------5--------3---------
E----------5-3-5-----3-1-3----5-3-5----3-1-3----5-3-5----3-1-3---

   tu locura me tortura, me hiere, aun asi te amo...
G----------------------------------------------------------
D----------------------------------------------------------
A-------------------5---5---3---3---5---5-5-5--------------
E---------------------5-------3-------5--------------------

  humanidad, humanidad...   humanidad
G--------------------------------------------------
D----------------2---------------------------------
A------2-----3-5---3-------2-------3---2---3-------
E--3-5---3---------------3---3-1-3---3---3---------

humanidaaaaaaaaaa...
G--6----------------------
D----8-5------------------
A--------7----------------
E-------------------------


al final de la cancion cuando grita humanidad creo q hace esto...
G--6------------------------------
D----8-5--------------------------
A--------7-5----------------------
E------------7-5-4-3--------------
Suggest correction
Give kudos to tab author, rate the tab!
1 2 3 4 5
comments
print report bad tab
guest
You may want to rate the tab now too:
select rating
Wanna post a correction for this tab? Suggest correction