Oops, an error
Loading. Please wait.

Llaman A La Puerta Chords

45 views 3 this week
no commentswrite comment
1 2 3 4 5
3 more votes to show rating
add to favorites
×
Save as Personal and add changes to this tab that will be seen only by you. Learn more ›
×
You can save this tab as Personal to edit and correct it or add notes. All changes will be seen only by you. Learn more »
save as personal
new!
launch autoscroll
font size
0
reset
transpose
0
reset
display chords
guitar tuner
Autoscroll
slow
fast
+/-
esc
set tempo
stop
Strumming
There is no strumming pattern for this song yet. and get +5 IQ
Em = xx9987
C  = xx10988
B  = xx9877
A  = xx7655
Am = xx7555
D  = xx7775
G  = xx5433

Intro: C - B (x3)

Em                  C    B
Llaman a la puerta, (quién será?)
Em                  C    B
son un par de mongos, (no les abras, no)
Em                  C    B
hablan como gringos, (que se vayan)
Em                  C    B
no descansan ni el domingo. (no les abras, no)

A                  D
Siempre el mismo rollo (salvación)
   G                 C     B
filosofía de pollo (perdición)
A                  D
siempre el mismo disco
   G                 C     B
más rayado que el de un bizco (perdición)

*CORO*
            Em            Am      D
No me dejan descansar, no me dejan descansar
            Em            Am      D
no me dejan trabajar, no me dejan trabajar.  [x2]

C - B (x3)

Solo: Em - C - B (x3)
e|----------------------------------------------------------------------------<14>////---------------
B|-12----------12------------12----------<12>////-12--------------12--------------------12-----------
G|----12-11--------12..----12---12-11----------------12-11------12---12-11-----------------12-<14>.--
D|----------14-----------14-----------14----------------------14-----------14------------------------
A|---------------------------------------------------------------------------------------------------
E|---------------------------------------------------------------------------------------------------

e|--------------------------------------------|
B|-------------------------------------8------|
G|-12-<14>-12----<14>-12--9-7-6.-9-7-9---9//--|
D|------------14------------------------------|
A|--------------------------------------------|
E|--------------------------------------------|


Em                  C    B
Llaman a la puerta, (una y otra vez)
Em                  C    B
son los mismos quesos, (no les abras, no)
Em                  C    B
voy a echarles agua, (que se vayan)
Em                  C    B
voy a echarles fuego. (no les abras, no)

A                  D
Siempre el mismo rollo (salvación)
   G                 C     B
filosofía de pollo (perdición)
A                  D
siempre el mismo disco
   G                 C     B
más rayado que el de un bizco (perdición)


*CORO*


                 --------
              º-| ¤    ¤ |-º
              º-|  LuïS  |-º
              º-| ¤    ¤ |-º
                       /
                |    |
      ·===========================·
      | luis_6cuerdas@ |
      ·===========================·


*Si hubiese algún error o alguna duda, escribe al mail o avisa por MSN*
Suggest correction
Give kudos to tab author, rate the tab!
1 2 3 4 5
comments
print report bad tab
guest
Wanna post a correction for this tab? Suggest correction