Oops, an error
Loading. Please wait.

Mi Marimba Chords

61 views 1 this week
no commentswrite comment
1 2 3 4 5
3 more votes to show rating
add to favorites
launch autoscroll
font size
0
reset
transpose
0
reset
display chords
guitar tuner
Autoscroll
slow
fast
+/-
esc
set tempo
stop
Help us to improve Ultimate-Guitar.com Take our survey!
×
Em = xx9987
Bm = xx9777
Am = xx7555

Intro
e|--------------------|
B|--------------------|
G|--------------------|
D|-5-5-4-2-------4-2.-|
A|---------5-2-5------|
E|--------------------|

Em
Esto es para la marimba que suena lindo, suena lindo
en Babilonia le dicen xilofón, feo nombre xilofón

(Em - Bm) -> Todo
Mi marimba, mi marimba, digan ya
(E marimba E marimba)
Mi marimba, mi marimba, marimba
(E marimba, E marimba)
Voy a tocar mi marimba, mi marimba
(Voy a tocar mi marimba)
quiero tocar mi marimba, mi marimba
(quiero a tocar mi marimba)
tócala, tócala (tócala).

Bm             Am
Tócala que suena lindo (tócala)
  Bm                Am
y tócala que suena bien (tócala)
Bm               Am
tócala que me hace falta, mi marimba suena bien (mi marimba suena bien)
(Em - Bm)
mm, suena bien, suena rico, suave suave, suena fuerte, suena lindo, óyela.

(Em - Bm)
e|-------7.------------------7.------------------7.-----------
B|-----8----8-10-8---------8----8-10-8---------8----8-10-8----
G|-9-9-------------9---9-9-------------9---9-9-------------9--
D|------------------------------------------------------------
A|------------------------------------------------------------
E|------------------------------------------------------------

e|------------------------------------------------------------------|
B|-------8-----10-----8---------------8-----------10-----------8----|
G|-9-9-9---9-9----9-9---9---9-9-9-9-9---9-9-9-9-9----9-9-9-9-9---9--|
D|------------------------------------------------------------------|
A|------------------------------------------------------------------|
E|------------------------------------------------------------------|

(Em - Bm) -->Todo
Mi marimba (mi marimba) (x2)
E marimba, E marimba (MI marimba MI marimba)
mi marimbita, mi marimba, marimba (mi marimba mi marimba)
voy a tocar mi marimba, marimba
(Voy a tocar mi marimba)
quiero tocar mi marimba, marimba
(quiero a tocar mi marimba)
tócala, tócala (tócala)

Bm             Am
tócala que suena lindo (tócala)
Bm             Am
tócala que suena bien (tócala)
Bm             Am
tócala que me hace falta, mi marimba suena bien (mi marimba suena bien)

(Em - Bm) -->Todo
eeeh suena bien, suena lindo, suave suave, suena fuerte, suena rico
suena bien mi marimba, marimba, marimba, marimba.
Yo quiero tocar mi marimba
yo voy a tocar mi marimba
yo voy a tocar mi marimba, mi marimba, marimba, marimba, bonita...


                 --------
              º-| ¤    ¤ |-º
              º-|  LuïS  |-º
              º-| ¤    ¤ |-º
                       /
                |    |
      ·===========================·
      | luis_6cuerdas@ |
      ·===========================·

*Si hubiese algún error o alguna duda, escribe al mail o avisa por MSN*
Suggest correction
Give kudos to tab author, rate the tab!
1 2 3 4 5
comments
print report bad tab
guest
You may want to rate the tab now too:
select rating
Wanna post a correction for this tab? Suggest correction