Oops, an error
Loading. Please wait.

Through The Darkness bass

version 2
version 2

Whole song

1,554 views 1 this week
no commentswrite comment
1 2 3 4 5
3 more votes to show rating
add to favorites
×
Save as Personal and add changes to this tab that will be seen only by you. Learn more ›
×
You can save this tab as Personal to edit and correct it or add notes. All changes will be seen only by you. Learn more »
launch autoscroll
font size
0
reset
guitar tuner
edit
Autoscroll
slow
fast
+/-
esc
set tempo
stop
Author
Difficulty
this song is supposed to be played on a stand up bass, but the notes still sound right. 
some of the rythems may be wrong but im pretty sure i got the notes right

Intro
G-----------------------------------------------------G--| X2
D------------2-----------2----------4-2------------------|D
A-----0----4------0----4--------0-4-----4----------------|A
E-----------------------------2--------------------------|E


verse
G----------------------------------------------------------------------------|
D-----------------------------------------------------------------------4-2--|
A---0-0-0-0-0-0----04----04--0-0-0-0-0-0----04----04--2-2-2-2-2-2----0-4---4-|
E----------------2-----2------------------2-----2------------------2---------|

G-----------------G---|  X2
D---------------------|D
A-222-555-000000------|A
E---------------------|E

play Intro X2 again

G-----------------------------------------------|G
D---------------------4-2-----------------------|D
A--2-2-2-2-2-2----0-4----4---222-555-000000-----|A
E---------------2-------------------------------|E


play verse X1 again


G----------------------------------------------------------------------------|
D--2222----------------------------------------------------------------------|
A-------02020202--------02020202---------222222---0-4-5-4-2-0-222-555-000000-|
E----------------222222-----------222222-------0-2---------------------------|


play verse X1 again


G-----------------------------|G
D-------------------------2---|D
A-222-555-222-555-222-555-----|A
E-----------------------------|E


play verse X1 again


G-----------------------------|G
D-----------------------------|D
A-222-555-222-555-222-5420----|A
E-----------------------------|E

END

            
            
Suggest correction
Creating personal tab
Creating personal tab
You can edit any tab online and save it as your Personal.

You can edit, replace or remove any tab part or add personal notes – all changes will be seen only by you.

Personal tabs can be accessed anytime from any device, even offline.
Learn more »
Give kudos to tab author, rate the tab!
1 2 3 4 5
comments
print report bad tab
guest
You may want to rate the tab now too:
select rating
Wanna post a correction for this tab? Suggest correction