Oops, an error
Loading. Please wait.

Antiseptic tab

version 1
version 1

Whole song

112 views 1 this week
3 commentsread comments
1 2 3 4 5
1 last vote to show rating
add to favorites
×
Save as Personal and add changes to this tab that will be seen only by you. Learn more ›
×
You can save this tab as Personal to edit and correct it or add notes. All changes will be seen only by you. Learn more »
launch autoscroll
font size
0
reset
how to read this tab
guitar tuner
edit
Autoscroll
slow
fast
+/-
esc
set tempo
stop
Author
Difficulty
[Intro]

e|------------------------------------------------------------------|
B|------------------------------------------------------------------|
G|----------3--------------3--------------3-------------------------|
D|-------5--------------5--------------5----------------------------|
A|------------4b5------------4b5------------4b5---------------------|
C|-0---3----------0---3----------0---3----------0---3-4-5-6-7-5-6-7-|

[Verse]

e|------------------------------------------------------------------|
B|------------------------------------------------------------------|
G|----------3--------------3--------------3-------------------------|
D|-------5--------------5--------------5----------------------------|
A|------------4b5------------4b5------------4b5---------------------|
C|-0---3----------0---3----------0---3----------0---3-4-5-6-7-5-6-7-|

e|------------------------------------------------------------------|
B|------------------------------------------------------------------|
G|----------3--------------3--------------3---------5b6r5---5-5-5---|
D|-------5--------------5--------------5------------x-------x-x-x---|
A|------------4b5------------4b5------------4b5-----3-------3-3-3---|
C|-0---3----------0---3----------0---3----------0-0-------0---------|

[Chorus]

e|------------------------------------------------------------------------------------------------|
B|-11-11-11-11-11-11-11-11-11-11-11-11-11-11-11-11-------------10-10-10b11r10--------11--------11-|
G|-12-12-12-12-12-12-12-12-12-12-12-12-12-12-12-12-12-12-12-12--x--x------------9-10----9-10-9----|
D|----------------------14-14-14-14-13-13-13-13-13-13-13-13-13-10-10------------------------------|
A|-------------------------------------------------11-11-11-11--8--8------------------------------|
C|----------------------------------------------------------------------------0-------------------|

[Verse]

e|------------------------------------------------------|
B|------------------------------------------------------|
G|----------3--------------3--------------3---------3---|
D|-------5--------------5--------------5------------1---|
A|------------4b5------------4b5------------4b5---------|
C|-0---3----------0---3----------0---3----------0-------|

e|------------------------------------------------------------------|
B|-8----------------------------------------------------------------|
G|-9----------------------------------------------------------------|
D|--------------------------------------------------5-6-7-8-9-7-8-9-|
A|------------------------------------------------------------------|
C|------------------------------------------------------------------|

e|------------------------------------------------------------------|
B|------------------------------------------------------------------|
G|----------3--------------3--------------3---------5b6r5---5-5-5---|
D|-------5--------------5--------------5------------x-------x-x-x---|
A|------------4b5------------4b5------------4b5-----3-------3-3-3---|
C|-0---3----------0---3----------0---3----------0-0-------0---------|

[Chorus]

e|-----------------------------------------------------------------------------------------------|
B|-11-11-11-11-11-11-11-11-11-11-11-11-11-11-11-11-------------10-10-10b11r10--------11----------|
G|-12-12-12-12-12-12-12-12-12-12-12-12-12-12-12-12-12-12-12-12--x--x------------9-10----9-10-9-9-|
D|-10-10-10-10-10-10-10-10-14-14-14-14-13-13-13-13-13-13-13-13-10-10-----------------------------|
A|-------------------------------------------------11-11-11-11--8--8-----------------------------|
C|----------------------------------------------------------------------------0------------------|

e|----------------------------------------------------------------------------|
B|-11-11-11-11-11-11-11-11-11-11-11-11-11-11-11-11-------------10-10-10b11r10-|
G|-12-12-12-12-12-12-12-12-12-12-12-12-12-12-12-12-12-12-12-12--x--x----------|
D|-10-10-10-10-10-10-10-10-14-14-14-14-13-13-13-13-13-13-13-13-10-10----------|
A|-------------------------------------------------11-11-11-11--8--8----------|
C|----------------------------------------------------------------------------|

[Bridge]

e|------------------------------------------|
B|------------------------------------------|
G|-------5b6-5------5b6-5------5b6-5--3---4-| x2
D|-------x---x------x---x------x---x--1---0-|
A|-------3---3------3---3------3---3--------|
C|-0-----------0-0--------0-0---------------|

e|------------------------------------------|
B|-------5---5------5---5------5---5--------|
G|-------x---x------x---x------x---x--3---4-| 
D|-------x---x------x---x------x---x--1---0-|
A|-------3---3------3---3------3---3--------|
C|-0-----------0-0--------0-0---------------|

e|------------------------------------------|
B|------------------------------------------|
G|-------5b6-5------5b6-5------5b6-5--3---4-| 
D|-------x---x------x---x------x---x--1---0-|
A|-------3---3------3---3------3---3--------|
C|-0-----------0-0--------0-0---------------|

e|-----------------------------------------|
B|-----------------------------------------|
G|-----------------------------------------|
D|-----------------------------------------|
A|------3------3------3--------5-------6---|
C|-0------0------0-------3-5/7---7-5-7---0-|

[Solo/Outro]

e|--------------------------------------------------------|
B|----------8-----8----8-----8--8--8--8-------------------|
G|-12-12---10b12-12---10b12-12-12-12-12-------------------| <-- the 12's after the 10b12 are still the 10
D|--------------------------------------------------------|     bent to 12
A|--------------------------------------------5-------6---|
C|-------0----------0-------------------3-5/7---7-5-7---0-|

e|-------------------------11--------------------------------------------------------|
B|-13\11-----------11----------------11--8-----8--8----------------------------------|
G|-------10/12--12----10------10--12----10b12-12-12-12r10-8-10-----------------------|
D|-------------------------------------------------------------10\-------------------|
A|-----------------------------------------------------------------------5-------6---|
C|-----------------------------------------------------------------3-5/7---7-5-7---0-|

e|----------------------------------------------------------------------------|
B|-13-------------------------------------------------------------------------| (Listen to track for this)
G|-15b16----------------------------------------------------------------------| After the first bend here,move
D|----------------------------------------------------------------------------| the hand position up a fret 
A|----------------------------------------------------------------5-------6---| at a time and bend randomly
C|----------------------------------------------------------3-5/7---7-5-7---0-|

e|-------------------------------------------------------------------------|
B|---------------11--------------------------------------------------------|
G|-12--x-x-x-12-----10-10b12-10b12r10-8-10-8-------------------------------| 
D|-----x-x-x---------------------------------10----------------------------| 
A|------------------------------------------------------5-------6----------|
C|------------------------------------------------3-5-7---7-5-7---0\\\\\---|


************************************

| x   Dead note
| h   Hammer-on
| p   Pull-off
| r   Release
| b   Bend
| br  Bend release
| /   Slide up
| \   Slide down

************************************

            
            
Suggest correction
Creating personal tab
Creating personal tab
You can edit any tab online and save it as your Personal.

You can edit, replace or remove any tab part or add personal notes – all changes will be seen only by you.

Personal tabs can be accessed anytime from any device, even offline.
Learn more »
Give kudos to tab author, rate the tab!
1 2 3 4 5
comments
print report bad tab
3 comments total.
0 reply
NIN1993 160 Jun 17, 2017 10:33 PM

holy shit thanks for posting I always had trouble figuring it out. never knew it was played with 6th string tuned to C.

+1 reply
irhagzy 1,297 Jun 18, 2017 06:27 AM

haha no worries man. Yeah it seems a fair few of their tracks are in drop C as far as i can tell

0 reply
Hokta 64 Sep 24, 2017 02:37 PM

Thank you for this tab, I was figuring it out on C standard but this way is much easier

guest
You may want to rate the tab now too:
select rating
Wanna post a correction for this tab? Suggest correction