Oops, an error
Loading. Please wait.

Destroy Tab

34 views 18 this week
no commentswrite comment
1 2 3 4 5
3 more votes to show rating
add to favorites
launch autoscroll
font size
0
reset
how to read this tab
guitar tuner
Autoscroll
slow
fast
+/-
esc
set tempo
stop
Help us to improve Ultimate-Guitar.com Take our survey!
×
Author
Difficulty
Tuning
intermediate
C F A# D# G C
[Intro]
C |---------------------------------------------------------------------------|
G |-----------------------------11-11-11-11-11-11-----------------------------|
D#|---------------------------------------------------------------------------|
A#|-------3--------3--------3---8--8--8--8--8--8------------------------------|
F |---------------------------------------------------------------------------|
C |-0-0-3----0-0-3----0-0-3---------------------------------------------------|

C |---------------------------------------------------------------------------|
G |-----------------------------11-11-11-11-11-11-11-11-11-11-11-11-----------|
D#|---------------------------------------------------------------------------|
A#|-------3--------3--------3---8--8--8--8--8--8--8--8--8--8--8--8------------|
F |---------------------------------------------------------------------------|
C |-0-0-3----0-0-3----0-0-3---------------------------------------------------|

[Verse]
C |----------------------------------------------|
G |----------------------------------------------|
D#|------------------------------------4---------|    x6
A#|-------3--------3--------3--------3-----------| 
F |----------------------------------------------|
C |-0-0-3----0-0-3----0-0-3----0-0-3-------------|

[Pre-Chorus]
C |------------------------------------------------------------|
G |---------------------------------11-11-11-11-11-11-11-------|
D#|----------6---------6---------6-----------------------------|    x2
A#|---------------------------------8--8--8--8--8--8--8--------|
F |------------------------------------------------------------|
C |--5-5-3-5---5-5-3-5---5-5-3-5-------------------------------|

[Chorus]
C |--------------------------------|
G |--------------------------------|
D#|----4---------------------------|    x4
A#|------5----3--------3-----------|
F |--------------------------------|
C |--0------0---0--0-3-------------|

[Verse 2]
C |----------------------------------------------|
G |----------------------------------------------|
D#|------------------------------------4---------|
A#|-------3--------3--------3--------3-----------| 
F |----------------------------------------------|
C |-0-0-3----0-0-3----0-0-3----0-0-3-------------|

C |----------------------------------------------|
G |----------------------------------------------|
D#|----------------------------------------------|
A#|-------3--------3--------3-2--2-2-------------| 
F |----------------------------------------------|
C |-0-0-3----0-0-3----0-0-3----------------------|

C |----------------------------------------------|
G |----------------------------------------------|
D#|------------------------------------4---------|    x2
A#|-------3--------3--------3--------3-----------| 
F |----------------------------------------------|
C |-0-0-3----0-0-3----0-0-3----0-0-3-------------|

[Pre-Chorus]
C |------------------------------------------------------------|
G |---------------------------------11-11-11-11-11-11-11-------|
D#|----------6---------6---------6-----------------------------|    x2
A#|---------------------------------8--8--8--8--8--8--8--------|
F |------------------------------------------------------------|
C |--5-5-3-5---5-5-3-5---5-5-3-5-------------------------------|

[Solo]
C |--------------------------------------------------------------------------------------------------------|
G |-12--12-12-13--12--12-12-13--12--12-12-13--12--12-12-13--9--9-9-10--9--9-9-10--9--9-9-10-9--9-9-10------|
D#|--------------------------------------------------------------------------------------------------------|
A#|-9---9--9--10--9---9--9--10--9---9--9--10--9---9--9--10--6--6-6-7---6--6-6-7---6--6-6-7--6--6-6-7-------|
F |--------------------------------------------------------------------------------------------------------|
C |--------------------------------------------------------------------------------------------------------|

C |--------------------------------------------------------------------------------------------------------|
G |-5--5-5-6--5--5-5-6--17--17-17-18--17--17-17-18--21--21-21-22--21--21-21-22--21--21-21-22--21--21-21-22-|
D#|--------------------------------------------------------------------------------------------------------|
A#|-2--2-2-3--2--2-2-3--14--14-14-15--14--14-14-15--18--18-18-19--18--18-18-19--18--18-18-19--18--18-18-19-|
F |--------------------------------------------------------------------------------------------------------|
C |--------------------------------------------------------------------------------------------------------|

[Pre-Chorus]
C |-------X------X------X-----------------------------|
G |-------X------X------X--11-11-11-11-11-11-11-------|
D#|-------X------X------X-----------------------------|    x2
A#|------------------------8--8--8--8--8--8--8--------|
F |---------------------------------------------------|
C |--5-5----5-5----5-5--------------------------------|

C |------------------------------------------------------------|
G |---------------------------------11-11-11-11-11-11-11-------|
D#|----------6---------6---------6-----------------------------|    x2
A#|---------------------------------8--8--8--8--8--8--8--------|
F |------------------------------------------------------------|
C |--5-5-3-5---5-5-3-5---5-5-3-5-------------------------------|

[Final Chorus]
(Guitar 1)
C |--------------------------------|
G |--------------------------------|
D#|----4---------------------------|    x3
A#|------5----3--------3-----------|
F |--------------------------------|
C |--0------0---0--0-3-------------|

(Guitar 2)
C |----------------------------------------------------------------------------------------------------------|
G |-12-12-12-12-12-12-12-12-12-12-12-12-12-12-12-12-12-12-12-12-12-12-12-12-12-12-12-12-12-12-12-12-12-12-12-|
D#|----------------------------------------------------------------------------------------------------------|
A#|-9--9--9--9--9--9--9--9--9--9--9--9--9--9--9--9--9--9--9--9--9--9--9--9--9--9--9--9--9--9--9--9--9--9--9--|
F |----------------------------------------------------------------------------------------------------------|
C |----------------------------------------------------------------------------------------------------------|

[Outro]
C |-------------------------------------------------------------|
G |---------------11-11-11-11-11-11-11-11-11-11-11-11--let ring-|
D#|----4--------------------------------------------------------|
A#|------5----3---8--8--8--8--8--8--8--8--8--8--8--8------------|
F |-------------------------------------------------------------|
C |--0------0---------------------------------------------------|
Suggest correction
Give kudos to tab author, rate the tab!
1 2 3 4 5
comments
print report bad tab
guest
You may want to rate the tab now too:
select rating
Wanna post a correction for this tab? Suggest correction