Oops, an error
Loading. Please wait.

Up In Smoke Tab

43 views 6 this week
no commentswrite comment
1 2 3 4 5
3 more votes to show rating
add to favorites
launch autoscroll
font size
0
reset
how to read this tab
guitar tuner
Autoscroll
slow
fast
+/-
esc
set tempo
stop
Help us to improve Ultimate-Guitar.com Take our survey!
×
Author
Difficulty
intermediate
Standard Tuning (/w low C) : CADGBe

[Intro/Verse Riff]

e|---------------------------------------------------------------------------|
B|---------------------------------------------------------------------------|
G|-7----7---7--7--7--7--7---7---7--7--7--7--7---7---7--7--7--7--7---7---7--7-|
D|-8----8---8--8--8--8--8---8---8--8--8--8--8---8---8--8--8--8--8---8---8--8-|
A|--------------------------------------10-10--10--10-10-10------------------|
C|-0----0---0--0--0-10-10--10--10-10-10---------------------10-10--10--10-10-|

[Into Chorus Part]
e|---------|let ring....|----------------------------------------------------|
B|---------------------------------------------------------------------------|
G|--7--7---------------6-----------------------------------------------------|
D|--8--8---------0-----------------------------------------------------------|
A|----------5h6-----4--------------------------------------------------------|
C|-10-10---------------------------------------------------------------------|


[Chorus 1]

e|---------------------------------------------------------------------------|
B|----3---------|let ring|-----|let ring|------|let ring|---|let ring|-------|
G|--3-----3---------------------------------------------------------5--------|
D|------5-----------0-----------0---0-----------0---0-----------0------------|
A|----------------6---1-----------6---1-----------6---1-----5h6---4----------|
C|----------7-6-5-------3---5/7---------3---5/7---------3--------------------|x3

e|---------------------------------------------------------------------------|
B|----3---------|let ring|-----|let ring|------|let ring|--------------------|
G|--3-----3------------------------------------------------------------------|
D|------5-----------0-----------0---0-----------0---0------------------------|
A|----------------6---1-----------6---1-----------6---1----------------------|
C|----------7-6-5-------3---5/7---------3---5/7---------3-----5--------------|

[Intro/Verse Riff]
[Into Chorus Part]

[Chorus 2]

e|---------------------------------------------------------------------------|
B|----3---------|let ring|-----|let ring|------|let ring|---|let ring|-------|
G|--3-----3---------------------------------------------------------5--------|
D|------5-----------0-----------0---0-----------0---0-----------0------------|
A|----------------6---1-----------6---1-----------6---1-----5h6---4----------|
C|----------7-6-5-------3---5/7---------3---5/7---------3--------------------|x3

e|---------------------------------------------------------------------------|
B|----3---------|let ring|-----|let ring|------|let ring|----|let ring|------|
G|--3-----3------------------------------------------------------------------|
D|------5-----------0-----------0---0-----------0---0-------------0----------|
A|----------------6---1-----------6---1-----------6---1----------------------|
C|----------7-6-5-------3---5/7---------3---5/7---------3-----5/7------------|

[Bridge/Solo]

e|--------------------------------------------0-----------0------------------|
B|-------------------------------------6-------------6----6------------------|
G|-------7------7-------7------7---------------------------------------------|
D|-----0------0-------0------0-------0------0------0--------0----------------|
A|---6------6-------6------6-------6------6------6------6--------------------|
C|-5--------------5-------5--------------------------------------------------|

e|---10----8--6--5--3-------13----15------10------10------10---10---10-------|
B|---11---10--8--6--3-------15----15------11------10-------8----9---10-------|
G|-0--0-x7-0--0--0--0-x6--0--0-x5--0-x3-0--0-x6-0--0-x6-0--0-x5-0-x2-0-x7----|
D|---------------------------------------------------------------------------|
A|---------------------------------------------------------------------------|
C|---------------------------------------------------------------------------|

e|---10----8--6--5--3-------13----15------10------10------10---10------------|
B|---11---10--8--6--3-------15----15------11------10------13---11------------|
G|-0--0-x7-0--0--0--0-x6--0--0-x5--0-x3-0--0-x6-0--0-x6-0--0-x6-0-x2-------5-|
D|---------------------------------------------------------------------0-----|
A|-----------------------------------------------------------------5/6---4---|
C|---------------------------------------------------------------------------|

[Chorus 3/Outro]

e|---------------------------------------------------------------------------|
B|----3---------|let ring|-----|let ring|------|let ring|---|let ring|-------|
G|--3-----3---------------------------------------------------------5--------|
D|------5-----------0-----------0---0-----------0---0-----------0------------|
A|----------------6---1-----------6---1-----------6---1-----5h6---4----------|
C|----------7-6-5-------3---5/7---------3---5/7---------3--------------------|x3

e|---------------------------------------------------------------------------|
B|----3---------|let ring|-----|let ring|------|let ring|----|let ring.....|-|
G|--3-----3---------------------------------------------------------------7--|
D|------5-----------0-----------0---0-----------0---0-------------0------0---|
A|----------------6---1-----------6---1-----------6---1-----------------6----|
C|----------7-6-5-------3---5/7---------3---5/7---------3-----5/7------5-----|


************************************

| h  Hammer-on
| /  Slide up
| x  Dead note

************************************
Suggest correction
Give kudos to tab author, rate the tab!
1 2 3 4 5
comments
print report bad tab
guest
You may want to rate the tab now too:
select rating
Wanna post a correction for this tab? Suggest correction