Oops, an error
Loading. Please wait.

Between Your Band And The Other Band Chords

11,391 views 45 this week
no commentswrite comment
1 2 3 4 5
excellent!
x 10
add to favorites
launch autoscroll
font size
0
reset
transpose
0
reset
display chords
guitar tuner
Tab Pro tools
  • play this tab
  • loop segment
  • change instrument
  • show fretboard
  • metronome
×
Best way to learn
"Between Your Band And The Other Band"
Autoscroll
slow
fast
+/-
esc
set tempo
stop
Contributor
-----------------------------------------------------------------------------
                     BETWEEN YOUR BAND AND THE OTHER BAND - Tigers Jaw
-----------------------------------------------------------------------------
Tabbed by: Mean Mr Mustard
Email: Gotchristo@comcast.net

Tuning: Standard

Chords:
C     x 3 2 0 1 0
D     x x 0 2 3 2  or  x 5 4 0 3 0 (seen this before in a live vid)
Em    0 2 2 0 0 0
G     3 2 0 0 3 3

INTRO:
Em     G     x 4
C      G
C      G
C      G
C

CHORUS:
C
Im missing all my friends
D
Losing touch
Em
Maybe I love you
G
Youre too much
C
Will I see you again?
D
Yeah probably not
Em
I'm serious
G
Raise confidence
C                 D 


LEAD LICK:
Em     G       x 4



VERSE:
Em                           G
Hoping growing confidence is gonna make you stay
Em                              G
Well every time you talk I love everything you say
Em                                G 
Everything we try to start theres something in the way
            Em                          G
Ill pass it off


CHORUS:
C                   
Well it cost dollars 
D
to write this song
Em       
For gas money 
G
and a ride home
C                   
Well I thought it through
D
And Im better now
Em
Such a long time
G
Step down
C               D 


LEAD LICK
Em     G     x 4


VERSE:
Em                                G
Knowing that you're so close only hangs me up again
Em                                  G
Suffice to say the price I pay wont matter in the end
Em                            G
This is something I cant even talk about with friends
            Em                          G
Ill pass it off


CHORUS:
C
Im never gonna wait
D
When the sun comes up
Em                     
Well I can never worry 
G
about you enough
C                
Everything I say 
D
is obvious
Em
Im nothing good
G
Im death to us

C                    
Well I get caught up 
D
in these routines
Em
The time I get home
G
The way I sing
C
And these songs I write
D
They arent me
Em
Im terrible
G
Im in between
C              D

OUTRO:
Em     G    x 4
C      G
C      G
C      G
C      G  



INTRO:
  Em           G                 Em
e|---------|--|-----------------|-------------------------------------|--|
B|---------|--|-----------------|--------15-------------15---------15-|--|
G|-1616-16-|x7|16/19191919191919|-16-1616--161616-161416--1616-1416---|x3|
D|-x-x--x--|--|x--x-x-x-x-x-x-x-|---------------------h----------h----|--|
A|-1414-14-|--|14/17171717171717|-------------------------------------|--|
E|---------|--|-----------------|-------------------------------------|--|
  *those hammer-ons are fast; 16th notes while the rest are 8th notes

  G
e|--------------------------------------|
B|--------------------------------------|
G|-1616161414141212121111111112--7-~----|
D|-x-x-x-x-x-x-x-x-x-x-x-x-x-x---x------|
A|-1414141212121010109-9-9-9-10--5-~----|
E|--------------------------------------|


LEAD LICK:
  Em                G                   
e|-----------------|----------------------|
B|-----------------|----------------------|
G|-----------------|----------------------|
D|x-xx99xx77xx55x5-|0xx1212xx1010xx/10975-|
A|-----------------|----------------------|
E|-----------------|----------------------|
 Em                G
|-----------------|------------------------|
|-----------------|------------------------|
|-----------------|----------h----h--------|
|x0xx99xx77xx55x5-|0xx1212xx109--109--10/12|
|-----------------|------------10---10-----|
|-----------------|------------------------|
                  |                        |
                  |------------------------|
                  |-----------------12~~---|
2nd time through, |-----------------12~~---|
end with this >   |-12-12-12-12-12--12~~---|
                  |-10-10-10-10-10---------|
                  |------------------------|
comments
print report bad tab
I want to post or [tab]
guest
You may want to rate the tab now too:
select rating
Please do not post tabs as comments. Select "correction" instead!